» » »

The Rust That I Feed Tabs (ver.1)

Artists:  A B C D E F G H I J K L M N O P Q R S T U V W X Y Z # 

The Rust That I Feed Tabs (ver.1)

Acid Drinkers
Rating:
0/5 (0 votes)

Hard to play? Try these video lessons and learn fast.
                (Intro)
I'm sure it's 100% correct. Enjoy ; >

tuning - drop C

D||---------------------------------------------------|
A||---------------------------------------------------|
F||--------------------0------------------------------|
C||--------7--------7-----7---------7--------7--------|
G||-----5--------5---------------5--------5-----5-----|
C||--0--------0---------------8--------6-----------0--|

D||---------------------------------------------------|
A||---------------------------------------------------|
F||-------1---------1--0h1---------1--0h1-------------|
C||-----0---------0--------------0--------------------|
G||---------------------------------------------------|
C||--3--------3---------------3-----------0-3-2-------|
            
Hard to play? Try these video lessons and learn fast. | Correct




comments powered by Disqus
↑ Back to top | Tablatures and chords are parodies/interpretations of the original songs. You may use it for private study, scholarship, research or language learning purposes only