» » »

Acid Drinkers, Satisfaction Bass tabs (ver.1)

Artists:  A B C D E F G H I J K L M N O P Q R S T U V W X Y Z # 

Satisfaction Bass tabs (ver.1)

Acid Drinkers Tabs
Rating:
0/5 (0 votes)
Satisfaction lessons Tabs too difficult? Try these video lessons and learn fast
                band:Acid Drinkers
                

F|--------------------------------|
C|-guitar intro-------------------|
G|--------------------------------|
D|--------------------------------|

  Part 1:
F|--------------------------------|
C|--------------------------------|
G|--------------------------------|
D|-2---2---2-2-2--0---0-0-0-0-0---|

  Part 2:
f|--------------------------------|--------------------------------|
C|--------------------------------|--------------------------------|
G|------------------------------2-|-2--2-2-2-2-2-2-2-2-2-2-2-2-2-2-|
D|-2--2-2-2-2-2-2-2-2-2-2-2-2-2---|--------------------------------|

  Part 3:
F|--------------------------------|-----------------------------------|
C|--------------------------------|-----------------------------------|
G|-----------------X--X--4--------|-----------------X--X--2-----X-X-X-|
D|-X--X--2------------------------|-X--X--2---------------------------|

  Part 4
F|--------------------------------|
C|--------------------------------|
G|-------------2------------------|
D|-0---2---X----------------------|

Play:
Part1 five times
Part2 two times
Part3 once
Part1 eight times
break ('bout 2 sec)
Part1 2 times
Part2 two times
Part3 once
Part1 eight times
break
Part1 2 times
Part2 two times
Part3 once
Part1 eight times
break
Part4 (end)	
            
Submit corrections

comments powered by Disqus
↑ Back to top | Acid Drinkers Bass for Satisfaction. Lyrics for acoustic guitar and electric guitar. Tablatures and chords are parodies/interpretations of the original songs. You may use it for private study, scholarship, research or language learning purposes only