» » »

Diab Soule Tabs (ver.1)

Artists:  A B C D E F G H I J K L M N O P Q R S T U V W X Y Z # 

Diab Soule Tabs (ver.1)

Acid Bath
Rating:
4/5 (2 votes)

Tabs too difficult? Try these video lessons and learn fast.
                Band - Acid Bath
Song - Diab Soule
Tuning  CGCFAD

.= palm mute B= bend /= slide up \=slide down

Intro
|-----------------------------------------|
|-----------------------------------------|
|-----------------------------------------|
|-3/555------3/555------3/555------3/555--|
|-3/555------3/555------3/555------3/555--|
|-3/555------3/555------3/555------3/555B-|
  .          .          .          .
Verse
|-------------------------------------------------------|
|-------------------------------------------------------|
|-------------------------------------------------------|
|-------------------------------------------------------|
|-5-5-5/-8/-10-9-7-9-7-7-5--5-5-5-\-3/-5/-8-7-5-7-5-5-3-|
|-5-5-5/-8/-10-9-7-9-7-7-5—-5-5-5-\-3/-5/-8-7-5-7-5-5-3-|

-------------------------------------------------------|
-------------------------------------------------------|
-------------------------------------------------------|
-------------------------------------------------------|
-5-5-5/-8/-10-9-7-9-7-7-5—-5-5-5-\-3/-5/-8-7-5-7-5-5-3-|
-5-5-5/-8/-10-9-7-9-7-7-5—-5-5-5-\-3/-5/-8-7-5-7-5-5-3-|

Chorus
|----------------------------------------------------------|
|----------------------------------------------------------|
|----------------------------------------------------------|
|-5-5--------------------------5-5-------------------------|
|-5-5-5-\-3/-5/-8-7-5-7-5-5-3--5-5-5-\-3/-5/-8-7-5-7-5-5-3-|
|-5-5--------------------------5-5-------------------------|

----------------------------------------------------------|
----------------------------------------------------------|
----------------------------------------------------------|
-5-5--------------------------5-5-------------------------|
-5-5-5-\-3/-5/-8-7-5-7-5-5-3--5-5-5-\-3/-5/-8-7-5-7-5-5-3-|
-5-5--------------------------5-5-------------------------|

Mid
|---------------------------------------------------------|
|---------------------------------------------------------|
|---------------------------------------------------------|
|-----5-------------5-------------5-------------5---------|
|-00-05-88\7\66-00-05-88\7\66-00-05-88\7\66-00-05-88\7\66-|
|-00-05-88\7\66-00-05-88\7\66-00-05-88\7\66-00-05-88\7\66-|
  .. .          .. .          .. .          .. .
------------------------------------------------|
------------------------------------------------|
------------------------------------------------|
-----5----------3----------5----------3---------|
-00-05-0-00-00-03-0-00-00-05-0-00-00-03-88\7\66-|
-00-05-0-00-00-03-0-00-00-05-0-00-00-03-88\7\66-|
 .. .  . .. .. .  . .. .. .  . .. .. .

Outro
|--------------------------------------------------------------|
|--------------------------------------------------------------|
|--------------------------------------------------------------|
|-3/5-5555--3/5-5555--3/5-5555--3/5-5555-88888888\777777\66666-|
|-3/5-5555--3/5-5555--3/5-5555--3/5-5555-88888888\777777\66666-|
|-3/5-5555--3/5-5555--3/5-5555--3/5-5555-88888888\777777\66666-|
      ....      ....      ....      ....
            
Tabs too difficult? Try these video lessons and learn fast.




comments powered by Disqus
↑ Back to top | Tablatures and chords are parodies/interpretations of the original songs. You may use it for private study, scholarship, research or language learning purposes only