» » »

A Change Of Pace, White Lines And Lipstick Tabs (ver.1)

Artists:  A B C D E F G H I J K L M N O P Q R S T U V W X Y Z # 

White Lines And Lipstick Tabs (ver.1)

A Change Of Pace Tabs
 Rating:
3.8/5 (5 votes)
White Lines And Lipstick lessons Tabs too difficult? Try these video lessons and learn fast
                -------------------------------------------------------------------------------
-------------------------------------------------------------------------------

Tuning:DADGBe

intro
e|-------------------------------------------------|
B|-------------------------------------------------|
G|-------------------------------------------------|
D|-------------------------------------------------|
A|-4-666-4-666-4-666-4-666-8-999-8-999-8-999-8-999-|
D|-------------------------------------------------|
pm . ... . ... . ... . ... . ... . ... . ... . ...

e|-------------------------------------------------------------------------|
B|-------------------------------------------------------------------------|
G|-------------------------------------------------------------------------|
D|-----------------------------------------11-131313-11-131313-11-131313-0-|
A|-11-131313-11-131313-11-131313-11-131313-------------------------------0-|
D|-----------------------------------------------------------------------0-|
pm .   . . . .  . . .  .  . . .  .  . . .                                .

pre verse
e|-----------------------------------------------------------------------|
B|-----------------------------------------------------------------------|
G|----------111111-------------------------111111---------88888888888888-|
D|-77-4-6-1-------77-4-6-1-111111-77-4-6-1-------77-4-6-1----------------|
A|-77-4-6-1-9-9-9-77-4-6-1-111111-77-4-6-1-9-9-9-77-4-6-1-66666666666666-|
D|-77-4-6-1-------77-4-6-1-111111-77-4-6-1-------77-4-6-1----------------|
pm                         ......

verse
e|-------------------------------|
B|-------------------------------|
G|-------------------------------|
D|-1-1-4---1-1-4---4-6-1---4-6-1-|
A|-1-1-4---1-1-4---4-6-1---4-6-1-|
D|-1-1-4---1-1-4---4-6-1---4-6-1-|

riff a
e|---------|
B|---------|
G|---------|
D|-7-6-464-|
A|-7-6-464-|
D|-7-6-464-|

verse

riff b
e|---------|
B|---------|
G|---------|
D|-7-7-6-6-|
A|-7-7-6-6-|
D|-7-7-6-6-|

pre chorus
e|----------|
B|----------|
G|----------|
D|-4-4-44-1-|
A|-4-4-44-1-|
D|-4-4-44-1-|

chorus
e|-------------------------------------------------------------------|
B|-------------------------------------------------------------------|
G|-------------------------------------------------------------------|
D|-66666666-44444444-1-11---1-11-66666666-44444444-1-11---1-11-1-4-0-|
A|-66666666-44444444-1-11---1-11-66666666-44444444-1-11---1-11-1-4-0-|
D|-66666666-44444444-1-11---1-11-66666666-44444444-1-11---1-11-1-4-0-|

pre verse

verse

riff a

verse

riff b

pre chorus

chorus

bridge

gtr 1
e|-------------------------|
B|-------------------------|
G|-------------------------|
D|-11111-1-4-11111-1-4-1-4-|
A|-11111-1-4-11111-1-4-1-4-|
D|-11111-1-4-11111-1-4-1-4-|
pm       .         .   .

gtr 2
e|-6-----------6-----------6-------6-----------6-------------------|
B|---9-7-9-7-----9-7-9-7-----9-7-9---9-7-9-7-----9-7-9-7---7-------|
G|-----------8-----------8-------------------8-----------8---8-6---|
D|---------------------------------------------------------------8-| [x2]
A|-----------------------------------------------------------------|
D|-----------------------------------------------------------------|

pre solo
gtr 1
e|------------|
B|------------|
G|------------|
D|-0----1-----|
A|-0----1-----|
D|-0----1-----|

gtr 2
e|------------|
B|------------|
G|-7----8-----|
D|------------|
A|------------|
D|------------|

solo
ok, i have the MAIN parts here, but when i play solos i usually just learn that much and 
the rest, so here are the main parts, do w/e you want with em...

e|----------------------------------------------------------------------|
B|-999-7-109-9-----16---16---16---16-19b-19p16-----19p16-----19p16------|
G|-888-6-9-8-8-/18b--18b--18b--18b------------18p16-----18p16-----18p16-|
D|----------------------------------------------------------------------|
A|----------------------------------------------------------------------|
D|----------------------------------------------------------------------|

then theres either some shredding or a h and p pattern like the one above, only lower, 
this...

e|--------------|
B|-999-7-109-10-|
G|-888-6-9-8-9--|
D|--------------|
A|--------------|
D|--------------|

shredding up a scale, then...

e|-18b-15----15-----15-17-18-20-22b-|
B|--------18----18------------------|
G|----------------------------------|
D|----------------------------------|
A|----------------------------------|
D|----------------------------------|

chorus

end on
e|---|
B|---|
G|---|
D|-0-|
A|-0-|
D|-0-|

| /  slide up
| \  slide down
| h  hammer-on
| p  pull-off
| ~  vibrato
| +  harmonic
| x  Mute note
===============================================================================
            
Submit corrections

comments powered by Disqus
↑ Back to top | A Change Of Pace Tabs for White Lines And Lipstick. Lyrics for acoustic guitar and electric guitar. Tablatures and chords are parodies/interpretations of the original songs. You may use it for private study, scholarship, research or language learning purposes only