» » »

A Change Of Pace, Take Care Tabs (ver.3)

Artists:  A B C D E F G H I J K L M N O P Q R S T U V W X Y Z # 

Take Care Tabs (ver.3)

A Change Of Pace Tabs
Rating:
5/5 (1 vote)
Take Care lessons Tabs too difficult? Try these video lessons and learn fast
                -------------------------------------------------------------------------------
                             Take Care - A Change of Pace
-------------------------------------------------------------------------------

Tuning: Standard

~ Play as needed
! Mute Strings

Intro X2

e|-------15----------15------------------------------------------------------|
B|-10-13----13-10-13---------------------------------------------------------|
G|----------------------10~-14~-12~------------------------------------------|
D|---------------------------------------------------------------------------|
A|---------------------------------------------------------------------------|
E|---------------------------------------------------------------------------|

Verse
e|---------------------------------------------------------------------------|
B|---------------------------------------------------------------------------|
G|-------------------55!-5!-5!-------------------------------------------------|
D|-22-33--33-22------55!-5!-5!--X A lot--------------------------------------|
A|-22-33--33-22--X2--33!-3!-3!-----------------------------------------------|
E|-00-11--11-00--------------------------------------------------------------|

Prechorus
e|---------------------------------------------------------------------------|
B|---------------------------------------------------------------------------|
G|---------------------------------------------------------------------------|
D|-55-77-3-------------------------------------------------------------------|
A|-55-77-3--X2---------------------------------------------------------------|
E|-33-55-1-------------------------------------------------------------------|

Chorus Repeat as necessary
e|---------------------------------------------------------------------------|
B|---------------------------------------------------------------------------|
G|-------5~------------------------------------------------------------------|
D|-7~-3~-5~-5~---------------------------------------------------------------|
A|-7~-3~-3~-5~---------------------------------------------------------------|
E|-5~-1~----3~---------------------------------------------------------------|

Bridge "I've been lookin for a safe way..."
e|---------------------------------------------------------------------------|
B|---------------------------------------------------------------------------|
G|-5-7-9-5!--5~-7~-11~-5~-11~-9~---------------------------------------------|
D|-5-7-9-5!--5~-7~-11~-5~-11~-9~---------------------------------------------|
A|-3-5-7-3!--3~-5~-9~--3~-9~--7~---------------------------------------------|
E|---------------------------------------------------------------------------|
            
Submit corrections

comments powered by Disqus
↑ Back to top | A Change Of Pace Tabs for Take Care. Lyrics for acoustic guitar and electric guitar. Tablatures and chords are parodies/interpretations of the original songs. You may use it for private study, scholarship, research or language learning purposes only