>
 >
Take Care

Take Care Guitar Tabs

A Change Of Pace - Take Care chords, tabs, tablatures, lyrics

Guitar lessons | Add/correct | Request | Top 50 tabs Artists:  A B C D E F G H I J K L M N O P Q R S T U V W X Y Z 0-9

Take Care Guitar Tabs – A Change Of Pace

CD, Sheet music, Poster

Do you like Take Care? Share with your friends now
TabsTabs v2Tabs v3
-----------------------------------------------------------------------------
-----------------------------------------------------------------------------

Tuning: Drop D (Both guitars)


Intro:

Guitar 1 (Lead)
e|-----15------15-----------------------------------------------------------------------------|
B|---13--13--13--13---------------------------------------------------------------------------|
G|-14------12------10101010101010101010101010101010/1414141414141414\12121212121212121212-----|x2
D|--------------------------------------------------------------------------------------------|
A|--------------------------------------------------------------------------------------------|
D|--------------------------------------------------------------------------------------------|

Guitar 2 (Rhythm)
e|------------------------------------------------------------------------|
B|------------------------------------------------------------------------|
G|----------------------------------5-5-5-5-5-5-5-5-----------------------|   x 2
D|-7-7-7-7--5-5-5-3---3-3---3-3-3-3-5-5-5-5-5-5-5-5-5-5-5-5-5-5-5-5-------|
A|-7-7-7-7--5-5-5-3---3-3---3-3-3-3-3-3-3-3-3-3-3-3-5-5-5-5-5-5-5-5-------|
D|-7-7-7-7--5-5-5-3---3-3---3-3-3-3-----------------5-5-5-5-5-5-5-5-------|


Verse:

Guitar 2 (Rhythm)
e|----------------------------------------|
B|----------------------------------------|
G|------4-4------------------------4-4----| x 2
D|------2-2-x-3-3------------3-3-x-2-2----|
A|------2-2-x-3-3------------3-3-x-2-2----|
D|------2-2-x-3-3------------3-3-x-2-2----|


Pre-Chorus:  (Sorry for the tough strumming, I didn't write the song, I just learned it.)

Guitar 2 (Rhythm)
e|---------------------------------------------------------------|
B|---------------------------------------------------------------|
G|---5-5-x-5-x-5-x-5-5-x-5-x-5-x-5-5-x-5-x-5-x-5-5-x-5-x-5-x-----|
D|---5-5-x-5-x-5-x-5-5-x-5-x-5-x-3-3-x-3-x-3-x-3-3-x-3-x-3-x-----|
A|---3-3-x-3-x-3-x-3-3-x-3-x-3-x-3-3-x-3-x-3-x-3-3-x-3-x-3-x-----|
D|-------------------------------3-3-x-3-x-3-x-3-3-x-3-x-3-x-----|


THEN 

Guitar 2 (Rhythm)
e|---------------------|
B|---------------------|
G|---------------------|
D|--5-5-5-7-7-7-3~-----|
A|--5-5-5-7-7-7-3~-----|
D|--5-5-5-7-7-7-3~-----|



Chorus:

Guitar 2 (Rhythm)
e|--------------------------------------------------------------------------|
B|--------------------------------------------------------------------------|
G|--------------------55555555----------------------------55555555----------|
D|--77777777-33333333-55555555-55555555-77777777-33333333-55555555-55555555-|
A|--77777777-33333333-33333333-55555555-77777777-33333333-33333333-55555555-|
D|--77777777-33333333----------55555555-77777777-33333333----------55555555-|

e|-------------------------------------------------------------------|
B|-------------------------------------------------------------------|
G|--------------------55555555----------------------------55555555~--|
D|--77777777-33333333-55555555-55555555-77777777-33333333-55555555~--|
A|--77777777-33333333-33333333-55555555-77777777-33333333-33333333~--|
D|--77777777-33333333----------55555555-77777777-33333333------------|


Verse:

Guitar 2 (Rhythm)
e|----------------------------------------|
B|----------------------------------------|
G|------4-4------------------------4-4----| x 2
D|------2-2-x-3-3------------3-3-x-2-2----|
A|------2-2-x-3-3------------3-3-x-2-2----|
D|------2-2-x-3-3------------3-3-x-2-2----|


Pre-Chorus: 

Guitar 2 (Rhythm)
e|---------------------------------------------------------------|
B|---------------------------------------------------------------|
G|---5-5-x-5-x-5-x-5-5-x-5-x-5-x-5-5-x-5-x-5-x-5-5-x-5-x-5-x-----|
D|---5-5-x-5-x-5-x-5-5-x-5-x-5-x-3-3-x-3-x-3-x-3-3-x-3-x-3-x-----|
A|---3-3-x-3-x-3-x-3-3-x-3-x-3-x-3-3-x-3-x-3-x-3-3-x-3-x-3-x-----|
D|-------------------------------3-3-x-3-x-3-x-3-3-x-3-x-3-x-----|


THEN 

Guitar 2 (Rhythm)
e|---------------------|
B|---------------------|
G|---------------------|
D|--5-5-5-7-7-7-3~-----|
A|--5-5-5-7-7-7-3~-----|
D|--5-5-5-7-7-7-3~-----|


Chorus:

Guitar 2 (Rhythm)
e|--------------------------------------------------------------------------|
B|--------------------------------------------------------------------------|
G|--------------------55555555----------------------------55555555----------|
D|--77777777-33333333-55555555-55555555-77777777-33333333-55555555-55555555-|
A|--77777777-33333333-33333333-55555555-77777777-33333333-33333333-55555555-|
D|--77777777-33333333----------55555555-77777777-33333333----------55555555-|

e|----------------------------------------------------------------------|
B|----------------------------------------------------------------------|
G|--------------------55555555----------------------------55555555~-----|
D|--77777777-33333333-55555555-55555555-77777777-33333333-55555555~-----|
A|--77777777-33333333-33333333-55555555-77777777-33333333-33333333~-----|
D|--77777777-33333333----------55555555-77777777-33333333---------------|



Bridge:

Guitar 2 (rhythm)
e|---------------------------------------------------------------------------|
B|---------------------------------------------------------------------------|
G|--5~------7~------9~------9------------------------------------------------| x 1
D|--5~------7~------9~------9------------------------------------------------|
A|--3~------5~------7~------7------------------------------------------------|
D|---------------------------------------------------------------------------|

Guitar 2 (Rhythm)
e|---------------------------------------------------------------------------|
B|---------------------------------------------------------------------------| 2
D|--55555555-33333333-9~-5~-9~-3~--------55555555-33333333-9~-5~-9~-10~------|
A|--33333333-33333333-7~-3~-7~-3~--------33333333-33333333-7~-3~-7~-8~-------|
D|-----------33333333----------3~-----------------33333333-------------------|


Pre-Chorus: 

Guitar 2 (Rhythm)
e|---------------------------------------------------------------|
B|---------------------------------------------------------------|
G|---5-5-x-5-x-5-x-5-5-x-5-x-5-x-5-5-x-5-x-5-x-5-5-x-5-x-5-x-----|
D|---x-x-x-x-x-x-x-x-x-x-x-x-x-x-3-3-x-3-x-3-x-3-3-x-3-x-3-x-----|
A|---3-3-x-3-x-3-x-3-3-x-3-x-3-x-3-3-x-3-x-3-x-3-3-x-3-x-3-x-----|
D|-------------------------------3-3-x-3-x-3-x-3-3-x-3-x-3-x-----|


THEN 

Guitar 2 (Rhythm)
e|---------------------|
B|---------------------|
G|---------------------| x 2
D|--5-5-5-7-7-7-3~-----|
A|--5-5-5-7-7-7-3~-----|
D|--5-5-5-7-7-7-3~-----|


Chorus:

Guitar 2 (Rhythm)
e|--------------------------------------------------------------------------|
B|--------------------------------------------------------------------------|
G|--------------------55555555----------------------------55555555----------|
D|--77777777-33333333-55555555-55555555-77777777-33333333-55555555-55555555-|
A|--77777777-33333333-33333333-55555555-77777777-33333333-33333333-55555555-|
D|--77777777-33333333----------55555555-77777777-33333333----------55555555-|

e|----------------------------------------------------------------------|
B|----------------------------------------------------------------------|
G|--------------------55555555----------------------------55555555~-----|
D|--77777777-33333333-55555555-55555555-77777777-33333333-55555555~-----|
A|--77777777-33333333-33333333-55555555-77777777-33333333-33333333~-----|
D|--77777777-33333333----------55555555-77777777-33333333---------------|

end on

e|-----------|
B|-----------|
G|----5~-----|
D|----5~-----|
A|----3~-----|
D|-----------|

************************************

| /   slide up
| \   slide down
| h   hammer-on
| p   pull-off
| ~   vibrato
| +   harmonic
| x   Mute note
| b   Bend
| pb  Pre-bend
| br  Bend release
| pbr Pre-bend release
| brb Bend release bend

************************************





Comments


Popular A Change Of Pace tabs & chords
Alive Bass Tabs
Home Where The Heart Is Bass Tabs
Ill Be There Chords
Chippie Tabs
Loose Lips Sink Ships Intro Tabs
Recipe For Disaster Tabs
Take Care 1 Tabs
Thin Red Line Tabs
Thin Red Line 1 Tabs
White Lines And Lipstick Tabs


Song lyrics



↑ Back to top | Tablatures and chords are parodies/interpretations of the original songs. You may use it for private study, scholarship, research or language learning purposes only
© 2014 AZChords.com Contact us | Privacy policy | DMCA | Add/correct tabs | Request tabs | Top 50 tabs