» » »

A Change Of Pace, She Believed Tabs (ver.1)

Artists:  A B C D E F G H I J K L M N O P Q R S T U V W X Y Z # 

She Believed Tabs (ver.1)

A Change Of Pace Tabs
Rating:
4/5 (1 vote)
Hard to play? Try these video lessons and learn fast.
                ----------------------------------------------------------------------------
            SHE BELIEVED (NEVER IN HERSELF) - A Change Of Pace
----------------------------------------------------------------------------
Tuning: standard

hey i just sat down and figured out the basics for this
so if you see something wrong or something feel free to post a correction

intro [note: piano is played over this, so some notes sound higher
than they are]
e|-----------------------------------------------------------------|
B|-----3-------3-------3-------3-------3-------3-------3-------3---|
G|---2-------2---2---2-------2---2---2---2---2-------2---2---2---2-|
D|-0-----2---------------0-----------------------------------------|
A|-----------------4---------------2-------2-----0---------0-------|
E|-----------------------------------------------------------------|

chorus/intro gtr 2
e|-000-00000-000-00000-00000000-00000000-|
B|-000-00000-000-00000-00000000-00000000-|
G|-777-99999-666-77777-44444444-22222222-|
D|-777-99999-666-77777-44444444-22222222-|
A|-555-77777-444-55555-22222222-00000000-|
E|---------------------------------------|

verse
e|-0-----0-----0-----------|
B|-0-----0-----0-----------|
G|-7-----6-----4-----------|
D|-7-----6-----4-----------|
A|-5-----4-----2-----------|
E|-------------------------|

pre chorus
e|-0000000000000000-0000000000000000-0000000000000000-0000000000000000-|
B|-0000000000000000-0000000000000000-0000000000000000-0000000000000000-|
G|-4444444444444444-2222222222222222-4444444444444444-6666666666666666-|
D|-4444444444444444-2222222222222222-4444444444444444-6666666666666666-|
A|-2222222222222222-0000000000000000-2222222222222222-4444444444444444-|
E|---------------------------------------------------------------------|

bridge thing after second chorus
e|---------|
B|-----3---|
G|---2---2-| REPEAT THIS MANY TIMES
D|-0-------|
A|---------|
E|---------|

clapping part
e|-----------------------------------------------0x----00000-|
B|-----3-------3-------3-------3-------3-------3-0x----00000-|
G|---2-------2---2---2-------2---2---2---2---2---2x----22222-|
D|-0-----2---------------0-----------------------2x----22222-|
A|-----------------4---------------2-------2-----0x----00000-|
E|-----------------------------------------------------------|

and thats all i got for now
leave any comments or corrections as you feel nessecary
            

comments powered by Disqus
↑ Back to top | A Change Of Pace Tabs for She Believed. Lyrics for acoustic guitar and electric guitar. Tablatures and chords are parodies/interpretations of the original songs. You may use it for private study, scholarship, research or language learning purposes only