» » »

A Change Of Pace, Loose Lips Sink Ships Tabs (ver.3)

Artists:  A B C D E F G H I J K L M N O P Q R S T U V W X Y Z # 

Loose Lips Sink Ships Tabs (ver.3)

A Change Of Pace Tabs
 Rating:
4/5 (7 votes)
Loose Lips Sink Ships lessons Tabs too difficult? Try these video lessons and learn fast
                Basic Strumming shown, listen to the song to figure it out.


A Change Of Pace - Loose Lips Sink Ships
			Intro G1 (lead)
e :------------------------------------------------------|
B :------------------------------------------------------|
G :-9b~-10b~-12b~-14b~-----------------------------------|
D :------------------------------------------------------|
A :------------------------------------------------------|
E :------------------------------------------------------|
                       Intro G2 (rhythm) *P.M*
     listen closely for this its there im pretty sure
e :------------------------------------------------------|
B :------------------------------------------------------|
G :-*7-7-9-7-10-7-7-9*-----------------------------------|
D :------------------------------------------------------|
A :------------------------------------------------------|
E :------------------------------------------------------|
			Intro G2 (pt2)
e :-------------------------------------------------------|
B :----------------------------{carries into verse}-------|
G :----x2--à-----------------------End on-----------------|
D :-000-888--000-888-10101010---------0~------------------|
A :-000-888--000-888-10101010-x2------0~------------------|
E :-000-888--000-888—10101010---------0~------------------|
			Verse 1 (G1) *P.M*
e :------------------------------------------------------|
B :------------------------------------------------------|
G :------9h10p9-7----12-10------9-9h10p9-7----10-9-x4----|
D :-*77*----------10-------*77*------------10------------|
A :------------------------------------------------------|
E :------------------------------------------------------|
 			Verse 1 (G2)
e :------------------------------------------------------|
B :------------------------------------------------------|
G :------------------------------------------------------|
D :-{0~}--8~--10~--0~------------------------------------|
A :-{0~}--8~--10~--0~-x2---------------------------------|
E :-{0~}--8~--10~--0~------------------------------------|
			Pre Chorus (G1)
e :-------------------------------------------------------|
B :-------------------------12---14-----------------------|
G :--------------------------x----x-----------------------|
D :-0000---7777---0000------10---12-----------------------|
A :-0000---7777---0000------------------------------------|
E :-0000---7777---0000------------------------------------|
P.M ----   ----   ----------------------------------------|
			Pre Chorus (G2)
e :-------------------------------------------------------|
B :-------------------------------------------------------|
G :-------------------------------------------------------|
D :-0000---7777---0000---10101010-------------------------|
A :-0000---7777---0000---10101010-------------------------|
E :-0000---7777---0000---10101010-------------------------|
P.M ----   ----   ----------------------------------------|
 			Chorus 1 (G1)
e :------------------------------------------------------|
B :------------------------------------------------------|
G :--7777-9999-10101010---7777-9999-14141414-------------|
D :--xxxx-xxxx--x-x-x-x---xxxx-xxxx--x-x-x-x-------------|
A :--5555-7777--8-8-8-8---5555-7777-12121212-------------|
E :------------------------------------------------------|

e :------------------------------------------------------|
B :------------------------------------------------------|
G :--7777-9999-10101010---7777-9999-9~-------------------|
D :--xxxx-xxxx--x-x-x-x---xxxx-xxxx-x--------------------|
A :--5555-7777--8-8-8-8---5555-7777-7~-------------------|
E :------------------------------------------------------|
			Chorus 1 (G2)
e :------------------------------------------------------|
B :------------------------------------------------------|
G :------------------------------------------------------|
D :-8888-10101010-00-00-0~-------------------------------|
A :-8888-10101010-00-00-0~-x4----------------------------|
E :-8888-10101010-00-00-0~-------------------------------|
			Fill 1 (G1) *P.M*
e :-------------------------------------------------------|
B :--------9h10p9-7-------10~--------9h10p9-7-------10----|
G :-7*777*----------*777*-----7*777*----------*777*-------|
D :-------------------------------------------------------|
A :-------------------------------------------------------|
E :-------------------------------------------------------|
			Fill 1 (G2)
e :-------------------------------------------------------|
B :---------------------------------(carries into verse)--|
G :-----x2---à----------------------------End On----------|
D :-0000-8888--0000-8888--10101010-----------0~-----------|
A :-0000-8888--0000-8888--10101010—x2--------0~-----------|
E :-0000-8888--0000-8888--10101010-----------0~-----------|
			Verse 2 (G1) *P.M*
e :------------------------------------------------------|
B :------------------------------------------------------|
G :------9h10p9-7----12-10------9-9h10p9-7----10-9-x4----|
D :-*77*----------10-------*77*------------10------------|
A :------------------------------------------------------|
E :------------------------------------------------------|
			Verse 2 (G2)
e :------------------------------------------------------|
B :------------------------------------------------------|
G :------------------------------------------------------|
D :-{0~}--8~--10~--0~------------------------------------|
A :-{0~}--8~--10~--0~-x2---------------------------------|
E :-{0~}--8~--10~--0~------------------------------------|

			Pre Chorus 2 (G1)
e :-------------------------------------------------------|
B :-------------------------12---14-----------------------|
G :--------------------------x----x-----------------------|
D :-0000---7777---0000------10---12-----------------------|
A :-0000---7777---0000------------------------------------|
E :-0000---7777---0000------------------------------------|
P.M ----   ----   ----------------------------------------|
			Pre Chorus 2 (G2)
e :-------------------------------------------------------|
B :-------------------------------------------------------|
G :-------------------------------------------------------|
D :-0000---7777---0000---10101010-------------------------|
A :-0000---7777---0000---10101010-------------------------|
E :-0000---7777---0000---10101010-------------------------|
P.M ----   ----   ----------------------------------------|
			Chorus 2 (G1)
e :------------------------------------------------------|
B :------------------------------------------------------|
G :--7777-9999-10101010---7777-9999-14141414-------------|
D :--xxxx-xxxx--x-x-x-x---xxxx-xxxx--x-x-x-x-------------|
A :--5555-7777--8-8-8-8---5555-7777-12121212-------------|
E :------------------------------------------------------|

e :--------------------------------------|---------------|
B :--------------------------------------|--bridge-------|
G :--7777-9999-10101010---7777-9999-9~---|---------------|
D :--xxxx-xxxx--x-x-x-x---xxxx-xxxx-x----|----|
A :--5555-7777--8-8-8-8---5555-7777-7~---|---------------|
E :--------------------------------------|---------------|
			Chorus 2 (G2)
e :-------------------------------------------|----------|
B :-------------------------------------------|-bridge---|
G :-------------------------------------------|----------|
D :-8888-10101010-00-00-0~------8888—10101010-|000000----|
A :-8888-10101010-00-00-0~-x3---8888-10101010-|000000----|
E :-8888-10101010-00-00-0~------8888-10101010-|000000----|
			Bridge 1 (G1)
e :--------------------------------------------------------|
B :--------------------------------------------------------|
G :--------------------------------------------------------|
D :-00000--88888--00000--8888--10101010--------------------|
A :-00000--88888--00000--8888--10101010-x2-----------------|
E :-00000--88888--00000--8888--10101010--------------------|
			Bridge 3 (G2)
e :------------------------------------------------------|
B :-------------------------------------carries over-----|
G :------------------------------------------------------|
D :-00000--88888--00000--8888--10101010—----0~-----------|
A :-00000--88888--00000--8888--10101010-x2--0~-----------|
E :-00000--88888--00000--8888--10101010-----0~-----------|
			Fill 2 (G1) *P.M*
e :-------------------------------------------------------|
B :--------9h10p9-7-------10~--------9h10p9-7-------10~---|
G :-7*777*----------*777*-----7*777*----------*777*-------|x2
D :-------------------------------------------------------|
A :-------------------------------------------------------|
E :-------------------------------------------------------|
			Fill 2 (G2)
e :------------------------------------------------------|
B :------------------------------------------------------|
G :------------------------------------------------------|
D :-{0~}------------0~------------x----------------------|
A :-{0~}------------0~------------x----------------------|
E :-{0~}------------0~------------x----------------------|
			Chorus 3 (G1)
e :------------------------------------------------------|
B :------------------------------------------------------|
G :--7777-9999-10101010---7777-9999-14141414-------------|
D :--xxxx-xxxx--x-x-x-x---xxxx-xxxx--x-x-x-x-------------|
A :--5555-7777--8-8-8-8---5555-7777-12121212-------------|
E :------------------------------------------------------|

e :------------------------------------------------------|
B :------------------------------------------------------|
G :--7777-9999-10101010---7777-99999---------------------|
D :--xxxx-xxxx--x-x-x-x---xxxx-xxxxx---------------------|
A :--5555-7777--8-8-8-8---5555-77777---------------------|
E :------------------------------------------------------|
			Chorus 3 (G2)
e :------------------------------------------------------|
B :------------------------------------------------------|
G :------------------------------------------------------|
D :-8888-10101010-00-00-0~-----8888--10101010------------|
A :-8888-10101010-00-00-0~-x3--8888--10101010------------|
E :-8888-10101010-00-00-0~-----8888--10101010------------|
			Outro (G1)
e :------------------------------------------------------|
B :------------------------------------------------------|
G :-1010101010101010101010-------------------------------|
D :--x-x-x-x-x-x-x-x-x-x-x---(x's as needed)-------------|
A :--8-8-8-8-8-8-8-8-8-8-8-------------------------------|
E :------------------------------------------------------|
			Outro (G2)
e :-------------------------------------------------------|
B :-------------------------------------------------------|
G :-------------------------------------------------------|
D :-000-888-000-888-10101010----000-888-000-8888-10101010-|
A :-000-888-000-888-10101010-x4-000-888-000-8888-10101010-|
E :-000-888-000-888-10101010----000-888-000-8888-10101010-|

e :------------------------------------------------------|
B :------------------------------------------------------|
G :------------------------------------------------------|
D :-0x---------------------------------------------------|
A :-0x---------------------------------------------------|
E :-0x---------------------------------------------------|
            
Submit corrections

comments powered by Disqus
↑ Back to top | A Change Of Pace Tabs for Loose Lips Sink Ships. Lyrics for acoustic guitar and electric guitar. Tablatures and chords are parodies/interpretations of the original songs. You may use it for private study, scholarship, research or language learning purposes only