» » »

A Change Of Pace, Home Where The Heart Is Bass tabs (ver.1)

Artists:  A B C D E F G H I J K L M N O P Q R S T U V W X Y Z # 

Home Where The Heart Is Bass tabs (ver.1)

A Change Of Pace Tabs
Rating:
0/5 (0 votes)
Home Where The Heart Is lessons Tabs too difficult? Try these video lessons and learn fast
                -------------------------------------------------------------------------------
-------------------------------------------------------------------------------
Tuning: Drop D

Intro
G|---------------------------------------------------------------------|
D|---------------------------------------------------------------------|
A|-3333333333333-3-3-3333333333333-3-3-00000000000-0-0-00000000000-0-0-|
D|---------------------------------------------------------------------| 

Verse
G|---------------------------------------|
D|---------------------------------------|
A|-3-33-3-3-33-3-33-3-0-00-0-0-0-00-0-00-|
D|---------------------------------------|

G|--------------4h5p4---|   |------------4h5p4----|
D|------------5-------5-|   |----------5-------5--|
A|-3333333333-----------|   |-00000000------------|
D|----------------------|x2 |---------------------|x2

Pre-Chorus
G|-----------------|
D|-----------------|
A|-----------------|
D|-33-55-77777777--| x4

Chorus
G|-----------------------------------------------------------------|
D|-----------------------------------------------------------------|
A|-333333-2222222--------------------------------------------------|
D|---------------333333333333-3/77-7-77-7-55-5-55-5-33333333333333-| 

G|----------------------------------------------------------------|
D|----------------------------------------------------------------|
A|---------------------33333333333333-----------------------------|
D|-3/7777777-3333333333---------------77777-5555555-3333333333333-| 

Repeat whole Verse
Pre-Chorus x4
Chorus x1

Bridge
G|-------------------|
D|-------------------|
A|-3~-2~-------------|
D|--------23~--23~---| x4

G|---------------------------------------------------------|
D|---------------------------------------------------------|
A|-33333333333333-333333333333-000000000000-00000000000000-|
D|---------------------------------------------------------| 

Chorus x1
            

comments powered by Disqus
↑ Back to top | A Change Of Pace Bass for Home Where The Heart Is. Lyrics for acoustic guitar and electric guitar. Tablatures and chords are parodies/interpretations of the original songs. You may use it for private study, scholarship, research or language learning purposes only