» » »

A Change Of Pace, Christmas On The Coast Tabs (ver.1)

Artists:  A B C D E F G H I J K L M N O P Q R S T U V W X Y Z # 

Christmas On The Coast Tabs (ver.1)

A Change Of Pace Tabs
Rating:
5/5 (2 votes)
Christmas On The Coast lessons Tabs too difficult? Try these video lessons and learn fast
                -------------------------------------------------------------------------------
-------------------------------------------------------------------------------

I like this song and I noticed it had quite a few requests so I figured I'd
attempt to tab it. Let me know what you think. Comment/rate.
I already submitted this but not via the "Tab Request" page.

Also, it's on the compilation CD "A Santa Cause 2: It's A Punk Rock Christmas."


Tuning: Standard


Intro-
Guitar 1
e|---------------------------------------------------------------------------|
B|----------------------------------------------------------------(Ends on)--|
G|5--5-5-5--5x----------------5--5-5-5--5x----------------------------5~-----|
D|5--5-5-5--5x--5-5--7-7------5--5-5-5--5x--2-2--3-3---------x2-------5~-----|
A|3--3-2/3--3x--5-5--7-7------3--3-2/3--3x--2-2--3-3------------------3~-----|
E|--------------3-3--5-5--------------------0-0--1-1-------------------------|



Guitar 2
e|----------------------------------------3-33-0-00---------------(Ends on)--|
B|5---3---1---0-00--1-11------5---3---1-------------------------------1~-----|
G|--5---4---2-------------------5---4---2------------------------------------|
D|-----------------------------------------------------------x2--------------|
A|---------------------------------------------------------------------------|
E|---------------------------------------------------------------------------|






Verse-
Guitar 1 (The first chord is just the last one from the Intro ringing out)
e|----------7~--------8~--------3~-------------------------------------------|
B|----------8~--------8~--------3~-------------------------------------------|
G|5~--------5~--------5~--------5~----------------------------5x-------------|
D|5~----------------------------------------------3-2---2-3-2-5x-------------|
A|3~-(These chords have slight distortion)------------3-------3x-------------|
E|---------------------------------------------------------------------------|
PM                                                . . . . . .

e|---------------------------------------------------------------------------|
B|---------------------------------------------------------------------------|
G|5x-5-----------------------------------------------------------------------|
D|5x-5-------2x-2-------3x-3-------5x-5--------------------------------------|
A|3x-3-x16---2x-2-x16---3x-3-x16---5x-5-x8-----------------------------------|
E|-----------0x-0-------1x-1-------3x-3--------------------------------------|
PM   .          .          .          .



Guitar 2 (Comes in after the ringing intro chords of the Verse)
e|---------------------------------------------------------------------------|
B|-------------------------------------3---3---3---3---3---3---3---3---------|
G|---5---5---5---5---5---5---5---5-------5---5---5---5---5---5---5---5-------|
D|-----5---5---5---5---5---5---5---5-----------------------------------------|
A|---------------------------------------------------------------------------|
E|---------------------------------------------------------------------------|
PM   . . . . . . . . . . . . . . . .   . . . . . . . . . . . . . . . .


e|---------------------------------------------------------------------------|
B|5---5---5---5---5---5---5---5----------------------------------------------|
G|--5---5---5---5---5---5---5---5---5--5-5-5--5/7--7--7/9--------------------|
D|----------------------------------x--x-x-x--x/x--x--x/x--------------------|
A|----------------------------------3--3-3-3--3/5--5--5/7--------------------|
E|---------------------------------------------------------------------------|
PM. . . . . . . . . . . . . . . .






Chorus-
Guitar 1
e|---------------------------------------------------------------------------|
B|---------------------------------------------------------------------------|
G|5--5-5-5--5x----------------5--5-5-5--5x-----------------------------------|
D|5--5-5-5--5x--5-5--7-7------5--5-5-5--5x--2-2--3-3-------------x4----------|
A|3--3-2/3--3x--5-5--7-7------3--3-2/3--3x--2-2--3-3-------------------------|
E|--------------3-3--5-5--------------------0-0--1-1-------------------------|



Guitar 2
e|---------------------------------------------------------------------------|
B|---------------------------------------------------------------------------|
G|9--9-7/9--9x--4-4--5-5------9--9-7/9--9x--12-12--9-9-----------------------|
D|x--x-x/x--xx--x-x--x-x------x--x-x/x--xx--x--x---x-x-----------x4----------|
A|7--7-5/7--7x--2-2--3-3------7--7-5/7--7x--10-10--7-7-----------------------|
E|---------------------------------------------------------------------------|



Guitar 3 (Comes in halfway through the Chorus. It's faint and sounds like
bells)
e|8---8----------------------------------------------------------------------|
B|--------8---6--------x4----------------------------------------------------|
G|--5---5---5---5------------------------------------------------------------|
D|---------------------------------------------------------------------------|
A|---------------------------------------------------------------------------|
E|---------------------------------------------------------------------------|






Verse 2-
Guitar 1
e|---------------------------------------------------------------------------|
B|-------------------------------------------------8-6-5-6-5-----------------|
G|5x-5-------------------------------------------------------7-5-------------|
D|5x-5-------2x-2-------3x-3-------5x-5--------------------------------------|
A|3x-3-x16---2x-2-x16---3x-3-x16---5x-5-x8-----------------------------------|
E|-----------0x-0-------1x-1-------3x-3--------------------------------------|
PM   .          .          .          .

e|---------------------------------------------------------------------------|
B|---------------------------------------------------------------------------|
G|5x-5-----------------------------------------------------------------------|
D|5x-5-------2x-2-------3x-3-------5x-5--------------------------------------|
A|3x-3-x16---2x-2-x16---3x-3-x16---5x-5-x8-----------------------------------|
E|-----------0x-0-------1x-1-------3x-3--------------------------------------|
PM   .          .          .          .



Guitar 2
e|-------------------------------------------------7-5-3-5-3-----------------|
B|-----------------------------------------------------------6-5-------------|
G|5x---------------------------------------------^----------------^----------|
D|5x---------2x---------3x---------5x---------(These notes only sound--------|
A|3x---------2x---------3x---------5x---------correct when played with their-|
E|-----------0x---------1x---------3x----------Guitar 1 counter-parts)-------|


e|---------------------------------------------------------------------------|
B|-------------------------------------3---3---3---3---3---3---3---3---------|
G|---5---5---5---5---5---5---5---5-------5---5---5---5---5---5---5---5-------|
D|-----5---5---5---5---5---5---5---5-----------------------------------------|
A|---------------------------------------------------------------------------|
E|---------------------------------------------------------------------------|
PM   . . . . . . . . . . . . . . . .   . . . . . . . . . . . . . . . .


e|---------------------------------------------------------------------------|
B|5---5---5---5---5---5---5---5----------------------------------------------|
G|--5---5---5---5---5---5---5---5---5--5-5-5--5/7--7--7/9--------------------|
D|----------------------------------x--x-x-x--x/x--x--x/x--------------------|
A|----------------------------------3--3-3-3--3/5--5--5/7--------------------|
E|---------------------------------------------------------------------------|
PM. . . . . . . . . . . . . . . .





Bridge-
Guitar 1
e|---------------------------------------------------------------------------|
B|---------------------------------------------------------------------------|
G|---------------------------------5--5-5x-----------------------------------|
D|5------------7--7-7x---5--5-5x---5--5-5x---3--3-3x-------------------------|
A|5-x8---------7--7-7x---5--5-5x---3--3-3x---3--3-3x----x2-------------------|
E|3------------5--5-5x---3--3-3x-------------1--1-1x-------------------------|

e|---------------------------------------------------------------------------|
B|---------------------------------------------------------------------------|
G|--------------5-------------------------------------------------5~---------|
D|7------5------5------3------------7------5------------2~---3~---5~---------|
A|7-x8---5-x8---3-x8---3-x8---------7-x8---5-x8---------2~---3~---3~---------|
E|5------3-------------1------------5------3------------0~---1~--------------|



Guitar 2
e|---------------------------------------------------------------------------|
B|---------------------------------------------------------------------------|
G|7------9\------------9-9-9---------7-7-7---------4-4-4---------5-5-5-------|
D|x-x6---x------7-7-7---------5-5-5-----------------------3-3-3----------x3--|
A|5------7\---------------------------------3-3-3----------------------------|
E|---------------------------------------------------------------------------|

e|---------------------------------------------------------------------------|
B|---------------------------------------------------------------------------|
G|-------9-9-9---------7-7-7----------------------------10~---9~---5~--------|
D|7-7-7---------5-5-5-----------------------------------x-~---x~---x~--------|
A|------------------------------------------------------8-~---7~---3~--------|
E|---------------------------------------------------------------------------|



Guitar 3 (This part is very faint and comes in at about 1:50)
e|8---------8------7---------7------3---------3------5---------5-------------|
B|--8---8------------8---8------------3---3------------3---3-----------------|
G|----5---5------------5---5------------5---5------------5---5---------------|
D|---------------------------------------------------------------------------|
A|---------------------------------------------------------------------------|
E|---------------------------------------------------------------------------|

e|8---------8------7---------7-----------------------------------------------|
B|--8---8------------8---8---------------------------------------------------|
G|----5---5------------5---5-------------------------------------------------|
D|---------------------------------------------------------------------------|
A|---------------------------------------------------------------------------|
E|---------------------------------------------------------------------------|






Outro-
Guitar 1
e|----------(These notes are clean)----------------(Distorted here)----------|
B|-------------------------------------------------|-------------------------|
G|5--5-5-5--5x----------------5--5-5-5--5x---------V-------------------------|
D|5--5-5-5--5x--5-5--7-7------5--5-5-5--5x---------2-2--3-3------------------|
A|3--3-2/3--3x--5-5--7-7------3--3-2/3--3x---------2-2--3-3------------------|
E|--------------3-3--5-5---------------------------0-0--1-1------------------|

e|---------------------------------------------------------------------------|
B|---------------------------------------------------------------------------|
G|5--5-5-5--5x----------------5--5-5-5--5x-----------------------------------|
D|5--5-5-5--5x--5-5--7-7------5--5-5-5--5x--2-2--3-3---------x2--------------|
A|3--3-2/3--3x--5-5--7-7------3--3-2/3--3x--2-2--3-3-------------------------|
E|--------------3-3--5-5--------------------0-0--1-1-------------------------|

e|---------------------------------------------------------------------------|
B|---------------------------------------------------------------------------|
G|5--5-5-5--5x----------------5--5-5-5--5x-----------------------------------|
D|5--5-5-5--5x--5-5--7-7------5--5-5-5--5x--3-3-3-3-3-3-3-3--5-5-5-5-5-5-5-5-|
A|3--3-2/3--3x--5-5--7-7------3--3-2/3--3x--3-3-3-3-3-3-3-3--5-5-5-5-5-5-5-5-|
E|--------------3-3--5-5--------------------1-1-1-1-1-1-1-1--3-3-3-3-3-3-3-3-|



Guitar 2 (Comes in after Guitar 1's first Bar)
e|----------------------------------------3-33-0-00--------------------------|
B|5---3---1---0-00--1-11------5---3---1--------------------------------------|
G|--5---4---2-------------------5---4---2------------------------------------|
D|-------------------------------------------------------x2------------------|
A|---------------------------------------------------------------------------|
E|---------------------------------------------------------------------------|



| /  slide up
| \  slide down
| h  hammer-on
| p  pull-off
| ~  vibrato
| +  harmonic
| x  Mute note
===============================================================================
            

comments powered by Disqus
↑ Back to top | A Change Of Pace Tabs for Christmas On The Coast. Lyrics for acoustic guitar and electric guitar. Tablatures and chords are parodies/interpretations of the original songs. You may use it for private study, scholarship, research or language learning purposes only