>
 >
Asleep At The Wheel

Asleep At The Wheel Guitar Tabs

A Change Of Pace - Asleep At The Wheel chords, tabs, tablatures, lyrics

Guitar lessons | Add/correct | Request | Top 50 tabs Artists:  A B C D E F G H I J K L M N O P Q R S T U V W X Y Z 0-9

Asleep At The Wheel Guitar Tabs – A Change Of Pace

CD, Sheet music, Poster

Do you like Asleep At The Wheel? Share with your friends now
Bass TabsTabs
Arist - A Change of Pace
Song - Asleep At The Wheel
Album - An Offer You Can't Refuse
Tuning - Dropped D

This tab sounds 99% right.


  
  Intro 1 - Guitar 1
E|----------------------------|-----------------------------------------|
B|----------------------------|-----------------------------------------|
G|----14--12--15--14--12--14--|---14--12--15--14--14--15--14------------|
D|----0---0---0---0---0---0---|---0---0---0---0---0---0---0-------------|
A|----------------------------|-----------------------------------------|
D|----------------------------|-----------------------------------------|
    |.........................palm muted..............................|

  Intro 1 - Guitar 2 (If you listen really closely, youll hear this being played)
E|----------------------------------------------------------------------|
B|----------------------------------------------------------------------|
G|----------------------------------------------------------------------|
D|--0-0-3-0-2-0-0-5-0-0-3-0-2-0-3-----0-0-3-0-2-0-0-5-0-0-3-0-2-3-2-0---|
A|----------------------------------------------------------------------|
D|----------------------------------------------------------------------|
   |.........................palm muted..............................|





  Intro 2 - Guitars 1 & 2 
E|--------------------------------------------------------------------------------|
B|--------------------------------------------------------------------------------|
G|--------------------------------------------------------------------------------|
D|-0--3--0--2--0--5--0--3--0--2--0--3--0-----0--3--0--2--0--5--0--3--0--2h3p2--0--|
A|-0--3--0--2--0--5--0--3--0--2--0--3--0-----0--3--0--2--0--5--0--3--0--2h3p2--0--|
D|-0--3--0--2--0--5--0--3--0--2--0--3--0-----0--3--0--2--0--5--0--3--0--2h3p2--0--|


  Verse - Guitar 1
  "Asleep at the wheel..."
E|-----------------------------------------------|
B|-----------------------------------------------|
G|-----------------------------------------------|
D|--(0)------------------------------------------|
A|--(0)------------------------------------------|
D|--(0)------------------------------------------|
 let ring


  "Life at a stand-still..."
E|-----------------------------------------------|
B|-----------------------------------------------|
G|-----------------------------------------------|
D|--0--0-----------------------------------------|
A|--0--0-----------------------------------------|
D|--0--0-----------------------------------------|
  palm muted

  "...crashing through the window..."
E|--5--------------------------------------------|
B|--6--------------------------------------------|
G|--2--------------------------------------------|
D|-----------------------------------------------|
A|-----------------------------------------------|
D|-----------------------------------------------|


  Pre-Chorus - Guitar 1
E|----------------------------|-----------------------------------------|
B|----------------------------|-----------------------------------------|
G|----14--12--15--14--12--14--|---14--12--15--14--14--15--14------------|
D|----0---0---0---0---0---0---|---0---0---0---0---0---0---0-------------|
A|----------------------------|-----------------------------------------|
D|----------------------------|-----------------------------------------|
    |.........................palm muted..............................|


E|----------------------------|---------------------------|
B|----------------------------|---------------------------|
G|----14--12--15--14--12--14--|---14--12--15--------------|
D|----0---0---0---0---0---0---|---0---0---0---------------|
A|----------------------------|---------------------------|
D|--------------------------------------------------------|
    |...................palm muted.......................|


  Pre-Chorus - Guitar 2
E|----------------------------------------------------------------------|
B|----------------------------------------------------------------------|
G|----------------------------------------------------------------------|
D|--0-0-3-0-2-0-0-5-0-0-3-0-2-0-3-----0-0-3-0-2-0-0-5-0-0-3-0-2-3-2-0---|
A|----------------------------------------------------------------------|
D|----------------------------------------------------------------------|
   |.........................palm muted..............................|


E|-------------------------------------------------------|
B|-------------------------------------------------------|
G|-------------------------------------------------------|
D|--0-0-3-0-2-0-0-5-0-0-3-0-2-0-3-----0-0-3-0-2-0-0-5----|
A|-------------------------------------------------------|
D|-------------------------------------------------------|
   |.................palm muted.....................|




  Chorus - Guitar 1 
E|-------------------------|-------------------------------------|
B|-------------------------|-------------------------------------|
G|--9--/--10--\--5--/--7---|-----9--/--10--\--5--5---------------|
D|-------------------------|-------------------------------------|
A|--7--/--8---\--3--/--5---|-----7--/--8---\--3--3---------------|
D|-------------------------|-------------------------------------|



  Chorus - Guitar 2 
E|------------------------|------------------------------|
B|------------------------|------------------------------|
G|------------------------|------------------------------|
D|--7-----8-----3-----5---|--7-----8-----3-----3---------|
A|--7-----8-----3-----5---|--7-----8-----3-----3---------|
D|--7-----8-----3-----5---|--7-----8-----3-----3---------|



  Bridge 1 - Guitar 1
  "Never forget what im..."
E|-----------------------------------------------|
B|-----------------------------------------------|
G|-----------------------------------------------|
D|--8--7--5--7-----------------------------------|
A|--8--7--5--7-----------------------------------|
D|--8--7--5--7-----------------------------------|


   cont.
  "Bleeding, gasp for air..."
E|----------------------------------------|
B|----------------------------------------|
G|----------------------------------------|
D|-0000----0000----0---0-0-0-0------------|
A|-0000----0000----0---0-0-0-0------------|
D|-0000----0000----0---0-0-0-0------------|
   |......palm muted..........|

   cont.
  "...i am apart of this..."
E|---------------------------------|----------------------------------|
B|---------------------------------|-------14--------14---------------|
G|---------------------------------|-------13--------13---------------|
D|-0000----0000------0----0-0-0-0--|--0000------0000------------------|
A|-0000----0000------0----0-0-0-0--|--0000------0000------------------|
D|-0000----0000------0----0-0-0-0--|--0000------0000------------------|
   |.......palm muted...........|    |.pm.|    |.pm.|

   cont.
  "Never forget and you'll.."
E|-----------------------------------------------|
B|-----------------------------------------------|
G|-----------------------------------------------|
D|--8--7--5--7--3--5--8--7--5--7--5--3--(0)------|
A|--8--7--5--7--3--5--8--7--5--7--5--3--(0)------|
D|--8--7--5--7--3--5--8--7--5--7--5--3--(0)------|
                                      let ring



  Bridge 2 - Guitar
E|------------------------------------------|
B|------------------------------------------|
G|------------------------------------------|
D|-3p2p0---3p2p0---3p2p0---3p2p0---3p0h3----|
A|-3p2p0---3p2p0---3p2p0---3p2p0---3p0h3----|
D|-3p2p0---3p2p0---3p2p0---3p2p0---3p0h3----|

  cont.
E|------------------------------------------|
B|------------------------------------------|
G|------------------------------------------|
D|-8p7p0---8p7p0---8p7p0---8p7p0---8p0h8----|
A|-8p7p0---8p7p0---8p7p0---8p7p0---8p0h8----|
D|-8p7p0---8p7p0---8p7p0---8p7p0---8p0h8----|

  cont.
E|-------------------------------------------------------|
B|-------------------------------------------------------|
G|-------------------------------------------------------|
D|-10p8p0---10p8p0---10p8p0---10p8p0---10p0h10-----------|
A|-10p8p0---10p8p0---10p8p0---10p8p0---10p0h10-----------|
D|-10p8p0---10p8p0---10p8p0---10p8p0---10p0h10-----------|

  cont.
E|-------------------------------------------|
B|-------------------------------------------|
G|-------------------------------------------|
D|-10h12--0--10h12--0--10h12--10\------------|
A|-10h12--0--10h12--0--10h12--10\------------|
D|-10h12--0--10h12--0--10h12--10\------------|



  Ending - Guitar 1
E|---------------|
B|---------------|
G|---------------|
D|--0-0-0-0------|
A|--0-0-0-0------|
D|--0-0-0-0------|


Order of play.

Intro  1  x2
Intro  2  x2
Verse
Pre-chorus
Chorus    x2
Verse
Pre-Chorus
Chorus    x2
Bridge 1
Intro  2  x2
Bridge 2
Chorus    x2
Intro  1  x2
Ending





Comments


Popular A Change Of Pace tabs & chords
Weekend Warriors 1 Bass Tabs
Death Do Us Part Tabs
Every Second Tabs
How To Rape A Country Tabs
How To Rape A Country 1 Tabs
Recipe For Disaster Tabs
She Believed Tabs
Weekend Warriors Tabs
Weekend Warriors Intro Tabs
White Lines And Lipstick 1 Tabs


Song lyrics



↑ Back to top | Tablatures and chords are parodies/interpretations of the original songs. You may use it for private study, scholarship, research or language learning purposes only
© 2014 AZChords.com Contact us | Privacy policy | DMCA | Add/correct tabs | Request tabs | Top 50 tabs