» » »

Your Reach Tabs (ver.1)

Artists:  A B C D E F G H I J K L M N O P Q R S T U V W X Y Z # 

Your Reach Tabs (ver.1)

Ace Troubleshooter
Rating:
0/5 (0 votes)

Hard to play? Try these video lessons and learn fast.
                Artist- Ace Troubleshooter (Tooth and Nail Records)
Song- Your Reach
Album- The Madness of the Crowds

Enjoy! :)

(I don’t hear two guitar parts in this song, but this is the guitar 1 part
if there are 2)

Key- /= slide
    ()= palm mute
        ?= not sure if correct name (is that really E6?)

Intro-part a
     B      B      C#      C#     E  ?E6 E E6  E  E6 E  E6
e---------------------------------------------------------|
B---------------------------------------------------------|
G---4-4--4-4-4-4-/6-6--6-6-6-6-6-/9-9-9-9-9-9-9-9-9-9-9-9-|
D---4-4--4-4-4-4-/6-6--6-6-6-6-6-/9-9-9-9-9-9-9-9-9-9-9-9-|
A---2-2--2-2-2-2-/4-4--4-4-4-4-4—/7-7-6-7-7-6-7-7-6-7-7-6-|
E---------------------------------------------------------|

     B       B     C#      C#      E E6  E  E6 E E6  E  E6
e---------------------------------------------------------|
B---------------------------------------------------------|
G---4-4--4-4-4-4-/6-6--6-6-6-6-6-/9-9-9-9-9-9-9-9-9-9-9-9-|
D---4-4--4-4-4-4-/6-6--6-6-6-6-6-/9-9-9-9-9-9-9-9-9-9-9-9-|
A---2-2--2-2-2-2-/4-4--4-4-4-4-4—/7-7-6-7-7-6-7-7-6-7-7-6-|
E---------------------------------------------------------|

Intro- part b
     B    F#   B      F#
e--------------------------|
B--------------------------|
G---4-4-------4-4----------|
D---4-4--4-4--4-4--4-4-4-4-|
A---2-2--4-4--2-2--4-4-4-4-|
E--------2-2-------2-2-2-2-|

Verse- Play twice
      B    B      F#   E  G# E
e-------------------------------|
B-------------------------------|
G---4-4-4--4-4------------------|
D---4-4-4--4-4--4-4-4--2--6--2--|
A---2-2-2--2-2--4-4-4--2--6--2--|
E---------------2-2-2--0--4--0--|


Chorus-
    B  G# E  B  G# E
e--------------------|
B--------------------|
G---4--------4-------|
D---4--6--2--4--6--2-|
A---2--6--2--2--6--2-|
E------4--0-----4--0-|

(Repeat Chorus part A)

(Repeat Verse)

(Repeat Chorus)

Background picking part- repeat 4x

e----------------|
B---5-5-5--7-7-7-|
G----------------|

Pre-bridge/bridge a- Repeat 6x

     B   B  B  B  B   C#  C# C# C# C#  E   E  E  E  E
e-----------------------------------------------------|
B-----------------------------------------------------|
G---(4)-(4)-4-(4)-4--(6)-(6)-6-(6)-6--(9)-(9)-9-(9)-9-|
D---(4)-(4)-4-(4)-4--(6)-(6)-6-(6)-6--(9)-(9)-9-(9)-9-|
A---(2)-(2)-2-(2)-2--(4)-(4)-4-(4)-4--(7)-(9)-7—(7)-7-|
E-----------------------------------------------------|
      E   E  E  E  E
E---------------------|
B---------------------|
G----(9)-(9)-9-(9)-9--|
D----(9)-(9)-9-(9)-9--|
A----(7)-(7)-7—(7)-7--|
E---------------------|



Bridge b-
     B   B  B  B  B       C#           G#  E  G#     E
e---------------------------------------------------------|
B---------------------------------------------------------|
G---(4)-(4)-4-(4)-4--(6)-(6)-6-(6)-6----------------------|
D---(4)-(4)-4-(4)-4--(6)-(6)-6-(6)-6--6-6-2-2-6-6-2-2-2-2-|
A---(2)-(2)-2-(2)-2--(4)-(4)-4-(4)-4--6-6-2-2-6-6-2-2-2-2-|
E-------------------------------------4-4-0-0-4-4-0-0-0-0-|


     G#  E   G#    E    G#
e--------------------------|
B--------------------------|
G--------------------------|
D---6-6-2-2-6-6-2-2-2-2--6-|
A---6-6-2-2-6-6-2-2-2-2--6-|
E---4-4-0-0-4-4-0-0-0-0--4-|

(Repeat Chorus 2x)

Outro- Repeated several times (fade out)

e----------------|
B---4-4-4--5-5-5-|
G----------------|
            
Hard to play? Try these video lessons and learn fast. | Correct




comments powered by Disqus
↑ Back to top | Tablatures and chords are parodies/interpretations of the original songs. You may use it for private study, scholarship, research or language learning purposes only