» » »

Turn Round Tabs (ver.1)

Artists:  A B C D E F G H I J K L M N O P Q R S T U V W X Y Z # 

Turn Round Tabs (ver.1)

Ace Troubleshooter
Rating:
0/5 (0 votes)

Hard to play? Try these video lessons and learn fast.
                Ace Troubleshooter
2004 Tooth & Nail Records

Enjoy :)

after sweet drum intro
Intro:
e-------------------------------|
B-------------------------------|
G-5554-4442-5554-444-8888-------|
D-5555-2222-5555-222-xxxx-------|
A-3333-0000-3333-000-8888-------|
E-------------------------------|

Verse
e-----------------------------------------------------------------|
B-----------------------------------------------------------------|
G-55555555-55555555--55555555-55555555---5554-4442-5554-444-8888--|
D-55555555-66666666--55555555-66666666---5555-2222-5555-222-xxxx--|
A-33333333-33333333--33333333-33333333---3333-0000-3333-000-8888--|
E-----------------------------------------------------------------|
 /------------palm-muted!-----------------------------------------|

Chorus:
e----------------------|
B----------------------|
G-5-----3--------------|
D-5-----3-----3-----6--|
A-3-----1-----3-----6--|
E-------------1-----4--|
  C    Bb     F     G#

Verse

Chorus

Interlude 1:
e--------------8--8--8--8---|
B--------------9--9--9--9---|
G-5555---------10-10-10-10--|
D-5555----10----------------|
A-3333--8----8--------------|
E---------------------------|

Chorus

Interlude 2
e------------|
B------------|
G-5555-5555--|
D-5555-6666--|
A-3333-3333--|
E------------|

Enjoy!
            
Hard to play? Try these video lessons and learn fast. | Correct




comments powered by Disqus
↑ Back to top | Tablatures and chords are parodies/interpretations of the original songs. You may use it for private study, scholarship, research or language learning purposes only