» » »

Se #101 Bass tabs (ver.1)

Artists:  A B C D E F G H I J K L M N O P Q R S T U V W X Y Z # 

Se #101 Bass tabs (ver.1)

Ace Troubleshooter
Rating:
0/5 (0 votes)

Hard to play? Try these video lessons and learn fast.
                (0)

The rythm is right so just figure it out for your self it's pretty easy.  
If you play it as I have it tabbed you shouldn't have to add too much stuff. 
A few notes may be off but everything else should be right.
 =means play repeatedly

After the Drum intro
G|--------------------------|
D|--------------------------|
A|-2>-----------------------|
E|--------------------------|

G|---------------------------------------------------------------|
D|---4---2---4---2---------------4---2---4---2---4---2---4---2---|
A|-2---0---2---0---2>----------2---0---2---0---2---0---2---0---4-|
E|---------------------------------------------------------------|

G|--------------------------------------------------|
D|------------------------------------------------4-|
A|-2---2---2---------2---2---2-----2>---------------|
E|---0---2---0-2-2-2---0---2---0-4------------------|

G|---------------------------------|
D|---4---2---4---2---4---2---4---2-|
A|-2---0---2---0---2---0---2---0---|
E|---------------------------------|

G|---------------------------------------------|
D|---------------------------------------------|
A|-2---2---2-------2---2---2-----2>------------|
E|---0---2---0-2-2---0---2---0-4---------------|

G|-------------------------------|
D|-------------------------------|
A|-2>----------------------------|
E|-------------------------------|

G|-------------------------|
D|-----2-----2-----2-------|
A|-2-----2-----2-----2---4-|
E|---4-----4-----4-----4---|

G|-----------------------------|
D|-----------------------------|
A|-2---2---2-----2---2---2-----|
E|---0---2---0-2---0---2---0-4-|

G|-------------------------------|
D|-------------------------------|
A|---4-2-2-----------------------|
E|-0-----------------------------|
            
Hard to play? Try these video lessons and learn fast. | Correct




comments powered by Disqus
↑ Back to top | Tablatures and chords are parodies/interpretations of the original songs. You may use it for private study, scholarship, research or language learning purposes only