» » »

Ace Troubleshooter, Punk Rock Chicks Tabs (ver.1)

Artists:  A B C D E F G H I J K L M N O P Q R S T U V W X Y Z # 

Punk Rock Chicks Tabs (ver.1)

Ace Troubleshooter Tabs
 Rating:
4/5 (4 votes)
Punk Rock Chicks lessons Tabs too difficult? Try these video lessons and learn fast
1
                Intro
[--------------------------------------------------------]
[--------------------------------------------------------]
[-------5------------------------------------------------]
[---5----5------------------------5-5-5-5-5-5-5-5--------]
[3-3-3-3--3----3---3-3----5---5-5-3-3-3-3-3-3-3-3--------]
[-----------1-1-1-1-1--3-3-3-3-3--pm.---...---.----------]

C F G C(2x)

Verse 1:
C F
G C
C
F
G

Chorus:
C F
G C
C F
G C

Verse 2:
C F
G C
C F
G C

Chorus:
C F
G C
C F
G C

Bridge
[--------------------------------------------------------]
[--------------------------------------------------------]
[-5-5555-4-5-5555-4-7-7777-5---5555----------------------]
[-5-5555-2-3-3333-2-5-5555-3-5-5555----------------------]
[-3-3333---------------------3-3333----------------------]
[--------------------------------------------------------]
C F*
C G*
C F*
G* C F
G

CHORUS 2x

***** `&' *********************************************
**     #                                             **
**     #     Any corrections, questions, comments,   **
**    _#_    etc. welcome!                           **
**   ( # )                                           **
**** `---' ********************************************
            
Submit corrections

comments powered by Disqus
↑ Back to top | Ace Troubleshooter Tabs for Punk Rock Chicks. Lyrics for acoustic guitar and electric guitar. 1 Tablatures and chords are parodies/interpretations of the original songs. You may use it for private study, scholarship, research or language learning purposes only