>
 >
Phoenix

Phoenix Guitar Tabs

Ace Troubleshooter - Phoenix chords, tabs, tablatures, lyrics

Guitar lessons | Add/correct | Request | Top 50 tabs Artists:  A B C D E F G H I J K L M N O P Q R S T U V W X Y Z 0-9

Phoenix Guitar Tabs – Ace Troubleshooter

CD, Sheet music, Poster

Do you like Phoenix? Share with your friends now
Tabs
Ace Troubleshooter
2000 Tooth and Nail Records

intro 1 - palm muted (Repeat 8x)

E------------------|-----------------|
B------------------|-----------------|
G------------------|---5p4---4---4---|
D----5p4---4-------|-------5---5---5-|
A--3-----5---5-3-5-|-3---------------|
E------------------|-----------------|

intro 2 (guitar 1) (Repeat 4x)

E-0h5-3-3---2-0---|-0-0-0-0-0-0-0---|-0h5/7-7-8-8-8-10-|-10-10-10-10-10-10-10---|
B-----------------|-----------------|------------------|------------------------|
G-----------------|-----------------|------------------|------------------------|
D-----------------|-----------------|------------------|------------------------|
A-----------------|-----------------|------------------|------------------------|
E-----------------|-----------------|------------------|------------------------|

intro 2 (guitar 2) (Repeat 4x)

E-----------------|-----------------|------------------|------------------------|
B-----------------|-----------------|------------------|------------------------|
G-----------------|-9-----7-----4-5-|-7---4---5------7-|-7--7--7--7--7--7--7--7-|
D-2-2-2-2-2-2-2-2-|-9-----7-----4-5-|-7---4---5------7-|-7--7--7--7--7--7--7--7-|
A-2-2-2-2-2-2-2-2-|-7-----5-----2-3-|-5---2---3------5-|-5--5--5--5--5--5--5--5-|
E-0-0-0-0-0-0-0-0-|---0-0---0-0-----|-------------------------------------------|

intro 3

E------------------|-----------------|-----------------|-----------------|
B------------------|-----------------|-----------------|-----------------|
G--7---7-7-7-7-7-7-|-2h4-4-4---5---5-|-5-5-5-5-5-4h5-5-|-5---7---7-7-7-7-|
D--7---7-7-7-7-7-7-|---------4-5---5-|-5-5-5-5-5-------|---5-7---7-7-7-7-|
A--5---5-5-5-5-5-5-|-----------3---3-|-3-3-3-3-3-------|-----5---5-5-5-5-|
E------------------|-----------------|-----------------|-----------------|


E------------------|-----------------|-----------------|
B------------------|-----------------|-----------------|
G------2h4-4-4---4-|-----4-4-4-4-4-4-|-4h5-4---4---5---|
D--7-7---------4-4-|-----4-4-4-4-4-4-|-----------------|
A--7-7-----------2-|-----2-2-2-2-2-2-|-----------------|
E--5-5-------------|-----------------|-----------------|

verse 1 (part played 2x)

E------------------|-----------------|-----------------|
B------------------|-----------------|-----------------|
G------------------|-----------------|-5-5-5-5-4-5-5-4-|
D--5-5-5-5-5-5-5-5-|-5-5-5-5-5-5-5-5-|-5---5-5---5-5---|
A--5-5-5-5-5-5-5-5-|-5-5-5-5-5-5-5-5-|-3---3-3---3-3---|
E--3-3-3-3-3-3-3-3-|-3-3-3-3-3-3-3-3-|-----------------|

E------------------|-----------------|-----------------|-----------------|
B------------------|-----------------|-----------------|-----------------|
G------------------|-----------------|-5-5-5-5-4-5-5-4-|-7-7-7-7-7-7-7-7-|
D--5-5-5-5-5-5-5-5-|-5-5-5-5-5-5-5-5-|-5---5-5---5-5-5-|-7-7-7-7-7-7-7-7-|
A--5-5-5-5-5-5-5-5-|-5-5-5-5-5-5-5-5-|-3---3-3---3-3-3-|-5-5-5-5-5-5-5-5-|
E--3-3-3-3-3-3-3-3-|-3-3-3-3-3-3-3-3-|-----------------|-----------------|


Chorus 1 (part played 2x)

E------------------|-----------------|-----------------|-----------------|
B------------------|-----------------|-----------------|-----------------|
G------------------|-----------------|-----------------|-----------------|
D--4---4-4---4-4-4-|-4-4-4-4---4-4-4-|-7---7-7---7-7-7-|-7-7-7-7---7-7-7-|
A--4---2-4---4-4-4-|-4-4-4-4---4-4-4-|-7---7-7---7-7-7-|-7-7-7-7---7-7-7-|
E--2---2-2---2-2-2-|-2-2-2-2---2-2-2-|-5---5-5---5-5-5-|-5-5-5-5---5-5-5-|


E------------------|-----------------|-----------------|-----------------|
B------------------|-----------------|-----------------|-----------------|
G------------------|-----------------|-----------------|-----------------|
D--4---4-4---4-4-4-|-4-4-4-4---4-4-4-|-7---7-7---7-7-7-|-7-7-7-7---7-7-7-|
A--4---2-4---4-4-4-|-4-4-4-4---4-4-4-|-7---7-7---7-7-7-|-7-7-7-7---7-7-7-|
E--2---2-2---2-2-2-|-2-2-2-2---2-2-2-|-5---5-5---5-5-5-|-5-5-5-5---5-5-5-|


Bridge 1 (2x)

E------------------|-----------------|-----------------|-----------------|
B------------------|-----------------|-----------------|-----------------|
G------------------|-7-7-7-7-7-7-7-7-|-5-555555-555-555|-----------------|
D--5-555-5555555-55|-7-7-7-7-7-7-7-7-|-5-555555-555-555|-2-2-2-2-2-2-2-2-|
A--5-555-5555555-55|-5-5-5-5-5-5-5-5-|-3-333333-333-333|-2-2-2-2-2-2-2-2-|
E--3-333-3333333-33|-----------------|-----------------|-0-0-0-0-0-0-0-0-|


E------------------|-----------------|-----------------|-----------------|
B------------------|-----------------|-----------------|-----------------|
G------------------|-7-7-7-7-7-7-7-7-|-7h8p7--7--7h87--|-----------------|
D--5-555-5555555-55|-7-7-7-7-7-7-7-7-|-----------------|-2-2-2-2-2-2-2-2-|
A--5-555-5555555-55|-5-5-5-5-5-5-5-5-|-----------------|-2-2-2-2-2-2-2-2-|
E--3-333-3333333-33|-----------------|-----------------|-0-0-0-0-0-0-0-0-|

Bridge 2 (guitar 1) hold 12 measures bend up and release at 3rd measure

E------------------|
B--15--------------|
G------------------|
D------------------|
A------------------|
E------------------|

Bridge 2 (guitar 2) 1st measure only of the 12 measure bridge

E------------------|
B------------------|
G------------------|
D--7\5-------------|
A--7\5-------------|
E--5\3-------------|

Verse 2 & 3 (4x)

E------------------|-----------------|-----------------|-----------------|
B------------------|-----------------|-----------------|-----------------|
G------------------|-----------------|-7-7-7-7-7-7-7-7-|-7-7-7-7-7-7-7-7-|
D--5-5-5-5-5-5-5-5-|-5-5-5-5-5-5-5-5-|-7-7-7-7-7-7-7-7-|-7-7-7-7-7-7-7-7-|
A--5-5-5-5-5-5-5-5-|-5-5-5-5-5-5-5-5-|-5-5-5-5-5-5-5-5-|-5-5-5-5-5-5-5-5-|
E--3-3-3-3-3-3-3-3-|-3-3-3-3-3-3-3-3-|-----------------|-----------------|


E------------------|-----------------|-----------------|-----------------|
B------------------|-----------------|-----------------|-----------------|
G--5-5-5-5-5-5-5-5-|-5-5-5-5-5-5-5-5-|-----------------|-----------------|
D--5-5-5-5-5-5-5-5-|-5-5-5-5-5-5-5-5-|-2-2-2-2-2-2-2-2-|-2-2-2-2-2-2-2-2-|
A--3-3-3-3-3-3-3-3-|-3-3-3-3-3-3-3-3-|-2-2-2-2-2-2-2-2-|-2-2-2-2-2-2-2-2-|
E------------------|-----------------|-0-0-0-0-0-0-0-0-|-0-0-0-0-0-0-0-0-|

     Bridge 3

  (harmonics)
E------------------|-----------------|-----------------|-----------------|
B------7-----------|-----------------|-----------------|-----------------|
G----------7-------|-----------------|-----------------|-2-2-2-22222-2-2-|
D--7---------------|-2---2---2-2-2-4-|-5---5---5----55-|-2-2-2-22222-2-2-|
A------------------|-2---2---2-2-2-4-|-5---5---5----55-|-0-0-0-00000-0-0-|
E------------------|-0---0---0-0-0-2-|-3---3---3----33-|-----------------|


E------------------|-----------------|-----------------|
B------------------|-----------------|-----------------|
G--4-4-4-44444-4-4-|-5-5-5-55555-5-5-|-7-7-7-7-7-7-7-7-|
D--4-4-4-44444-4-4-|-5-5-5-55555-5-5-|-7-7-7-7-7-7-7-7-|
A--2-2-2-22222-2-2-|-3-3-3-33333-3-3-|-5-5-5-5-5-5-5-5-|
E------------------|-----------------|-----------------|


Verse 4 (2x)

E------------------|-----------------|-----------------|-----------------|
B------------------|-----------------|-----------------|-----------------|
G--9-9-9-9---99-9--|-----------------|-6-6-6-6---66-6--|-----------------|
D--9-9-9-9---99-9--|-7-7-7-7---77-7--|-6-6-6-6---66-6--|-7-7-7-7---77-7--|
A--7-7-7-7---77-7--|-7-7-7-7---77-7--|-4-4-4-4---44-4--|-7-7-7-7---77-7--|
E------------------|-5-5-5-5---55-5--|-----------------|-5-5-5-5---55-5--|

    (hold till end)
E------------------|
B------------------|
G------------------|
D--9---------------|
A--9---------------|
E--7---------------|





Comments


Popular Ace Troubleshooter tabs & chords
Chilly Minnesota Chords
Don't Trust That Girl Chords
I Miss You Girl Chords
In My Dreams Chords
Don Trust That Girl Tabs
Estella Tabs
Have It All Tabs
I Miss You Girl Tabs
Punk Rock Chicks Tabs
Kiss Goodnight Ukulele


Song lyrics



↑ Back to top | Tablatures and chords are parodies/interpretations of the original songs. You may use it for private study, scholarship, research or language learning purposes only
© 2014 AZChords.com Contact us | Privacy policy | DMCA | Add/correct tabs | Request tabs | Top 50 tabs