» » »

Ace Troubleshooter, Let's Go Away Tabs (ver.1)

Artists:  A B C D E F G H I J K L M N O P Q R S T U V W X Y Z # 

Let's Go Away Tabs (ver.1)

Ace Troubleshooter Tabs
 Rating:
4/5 (4 votes)
Let's Go Away lessons Tabs too difficult? Try these video lessons and learn fast
                
Great song! Enjoy :)


Intro:

Part 1
e[--------------------------------------------------------]
B[--------------------------------------------------------]
G[-----77-66-77----77-66-77----77-66-77-99-77-66-77-------]
D[--------------66----------55----------------------------]
A[--55----------------------------------------------------]
E[--------------------------------------------------------]

Part 2
e[---------------------------------------------------------------]
B[---------------------------------------------------------------]
G[-----77-66-77----77-66-77----77-66-77-9999-(11)(11)(11)(11}----]
D[--------------66----------55-----------------------------------]
A[--55-----------------------------------------------------------]
E[---------------------------------------------------------------]

Rhythm: D, A, G

Verse: D, A, G

Chorus: D, G, D, A, G

Interlude: Part 1

Verse: D, A, G

Chorus: D, G, D, A, G

Bridge Part 1: (Solo)

e[--------------------------------------------------------]
B[--------------------------------------------------------]
G[-----77-66-77----77-66-77----77-66-77-99-77-66-77-------]
D[--------------66----------55----------------------------]
A[--55----------------------------------------------------]
E[--------------------------------------------------------]

e[---------------------------------------------------------------]
B[---------------------------------------------------------------]
G[-----77-66-77----77-66-77----77-66-77-9999-(11)(11)(11)(11}----]
D[--------------66----------55-----------------------------------]
A[--55-----------------------------------------------------------]
E[---------------------------------------------------------------]

e[----1010-99-1010----1010-99-1010----1010-99-1010-1212-1010-99-1010-----]
B[-----------------99--------------88------------------------------------]
G[-77--------------------------------------------------------------------]
D[-----------------------------------------------------------------------]
A[-----------------------------------------------------------------------]
E[-----------------------------------------------------------------------]

e[----1010-99-1010----1010-99-1010----1010-99-1010-12-12-12-12-14-14-14-14--]
B[-----------------99--------------88---------------------------------------]
G[-77-----------------------------------------------------------------------]
D[--------------------------------------------------------------------------]
A[--------------------------------------------------------------------------]
E[--------------------------------------------------------------------------]

e[--15-15-15-15-15-15-15-15-15-15-15-15-15-15-15-------------]
B[-----------------------------------------------------------]
G[-----------------------------------------------------------]
D[-----------------------------------------------------------]
A[-----------------------------------------------------------]
E[-----------------------------------------------------------]

Rhythm During Bridge Solo: D, A, G

Bridge Part 2: D, A, G

Chorus:

End On: D


That's the song and it's easier than it looks. I love this song. 
Enjoy and God Bless!
            
Submit corrections

comments powered by Disqus
↑ Back to top | Ace Troubleshooter Tabs for Let's Go Away. Lyrics for acoustic guitar and electric guitar. Tablatures and chords are parodies/interpretations of the original songs. You may use it for private study, scholarship, research or language learning purposes only