» » »

Ace Troubleshooter, Have It All Tabs (ver.1)

Artists:  A B C D E F G H I J K L M N O P Q R S T U V W X Y Z # 

Have It All Tabs (ver.1)

Ace Troubleshooter Tabs
 Rating:
4/5 (4 votes)
Have It All lessons Tabs too difficult? Try these video lessons and learn fast
1
                
Intro:

Guitar 1: Feedback

Guitar 2: 
e[------------------------------------------------------------]
B[------------------------------------------------------------]
G[-9-9-9--11---9-9-9-9--11-11-11-11----6-6-6-6-6-6-6-6-6-6----]
D[-9-9-9--9----9-9-9-9--9--9--9--9-----6-6-6-6-6-6-6-6-6-6----]
A[-7-7-7--7----7-7-7-7--7--7--7--7-----4-4-4-4-4-4-4-4-4-4----]
E[-0-0-0--0----0-0-0-0--0--0--0--0-----0-0-0-0-0-0-0-0-0-0----]

Play clean twice, then both guitars with distortion.


Verse 1: 

Guitar 1: Ring out on E with feedback.

Guitar 2: Clean

e[---------------------------------------------------------------]
B[---------------------------------------------------------------]
G[-9-9-9--11---9-9-9-9--11-11-11-11--8-8-8-8-8--6-6-6-6-6-6-6----]
D[-9-9-9--9----9-9-9-9--9--9--9--9---9-9-9-9-9--7-7-7-7-7-7-7----]
A[---------------------------------------------------------------]
E[---------------------------------------------------------------]


Interlude: Play intro with distortion.


Verse 2: The same as Verse 1 but distorted with palm muting.


Pre-Chorus: B, A, B, A, G#


Chorus: High E, C#, G#, A


Interlude 2:

Solo:

e[---------------------------------------------------------------]
B[---------------------------------------------------------------]
G[---9---11---9---11----11-11-11-11------6-6-6-6-6-6-6-6-6-6-----]
D[-9---9----9---9-------9--9--9--9-------6-6-6-6-6-6-6-6-6-6-----]
A[---------------------------------------4-4-4-4-4-4-4-4-4-4-----]
E[---------------------------------------0-0-0-0-0-0-0-0-0-0-----]

All guitars come back on C#.


Verse 3: Ring out on E and have feedback. The bass plays.

Pre-Chorus

Chorus

Bridge:

Guitar 1: E, C#, A

Guitar 2:

e[---------------------------------------------------------------]
B[---9-9-9-9-7-7-7-7-7-7-5-5-5-4-4-0-0-0-0-0---------------------]
G[---9-9-9-9-9-9-9-9-9-9-4-4-4-4-4-2-2-2-2-2---------------------]
D[---------------------------------------------------------------]
A[---------------------------------------------------------------]
E[---------------------------------------------------------------]

Play three times then:

e[---------------------------------------------------------------]
B[---9-9-9-9-7-7-7-7-7-7---4-5-5-5-5-5-5-4-5-5-5-5-5-5-----------]
G[---9-9-9-9-9-9-9-9-9-9-----------------------------------------]
D[---------------------------------------------------------------]
A[---------------------------------------------------------------]
E[---------------------------------------------------------------]

End Chorus: On the last part of the chorus, hold A.

End on E to A.
            
Submit corrections

comments powered by Disqus
↑ Back to top | Ace Troubleshooter Tabs for Have It All. Lyrics for acoustic guitar and electric guitar. 1 Tablatures and chords are parodies/interpretations of the original songs. You may use it for private study, scholarship, research or language learning purposes only