>
 >
Fortress (Instrumental)

Fortress (Instrumental) Guitar Tabs

Ace Troubleshooter - Fortress (Instrumental) chords, tabs, tablatures, lyrics

Guitar lessons | Add/correct | Request | Top 50 tabs Artists:  A B C D E F G H I J K L M N O P Q R S T U V W X Y Z 0-9

Fortress (Instrumental) Guitar Tabs – Ace Troubleshooter

CD, Sheet music, Poster

Do you like Fortress (Instrumental)? Share with your friends now
Tabs
##################################### 
############# Guitar 1 ############## 
##################################### 
RIFF 1 
e[-2-2-2-2-3-3-3-3-5-5-5-5-3-3-3-3-repeat-9--9--9--9-----] 
B[--33-3-3-3-3-3-3-3-3-3-3-3-3-3-3-once---10-10-10-10----] 
G[---------------------------------then:-----------------] 
D[-------------------------------------------------------] 
A[-------------------------------------------------------] 
E[-------------------------------------------------------] 
RIFF 2 
e[-------------------------------------------------------] 
B[-------------------------------------------------------] 
G[-7^-7-7777777--7--7--7-7777777--7--7-&----------------o] 
D[-7^-7-777777---------7-777777---------5-555-5-4-444444-] 
A[-5^-5-555555-55-55-5-4-444444-44-44-4&5-555-5-4-44444-o] 
E[------..............---..............-3-333-3-2-22222--] 
RIFF3 
e[-------------------------------------------------------] 
B[-------------------------------------------------------] 
G[-7^-4^-------7^----7^-4^-------7^----7^----------------] 
D[-7^-4^-7^-5^-7^-5^-7^-4^-7^-5^-7^-5^-7^----------------] 
A[-5^-2^-7^-5^-5^-5^-5^-2^-7^-5^-5^-5^-5^----------------] 
E[-------5^-3^----3^-------5^-3^----3^-------------------] 
RIFF4(after bass thing) 
e[-------------------------------------------------------] 
B[-------------------------------------------------------] 
G[-7-7^-7^-------------7^-7^-----------------------------] 
D[-7-7^-7^-5^-4^-5^-4^-7^-7^-4^-5^-4^-5^-4^--------------] 
A[-5-5^-4^-5^-4^-5^-4^-5^-4^-x^-5^-4^-5^-4^--------------] 
E[-%-------3^-2^-3^-2^-------2^-3^-2^-3^-2^--------------] 
              
##################################### 
############# Guitar 2 ############## 
##################################### 
RIFF 1(comes in after guitar 1 does it once) 
e[-2-2-2-2-3-3-3-3-5-5-5-5-3-3-3-3-repeat-9--9--9--9-----] 
B[--3-3-3-3-3-3-3-3-3-3-3-3-3-3-3-3once---10-10-10-10----] 
G[---------------------------------then:-----------------] 
D[-------------------------------------------------------] 
A[-------------------------------------------------------] 
E[-------------------------------------------------------] 
pm................................. 
RIFF 2 
e[----------------|--------------------------------------] 
B[-10-101010-8----|--------------------------------------] 
G[-------------11-|--------------------------------------] 
D[----------------|-5h7p5-4------------------------------] 
A[----------------|---------5----------------------------] 
E[----------------|--------------------------------------] 
RIFF3                  [      2x          ] 
e[---------------------|-------[   2x    ]|--------------] 
B[-10-101010-8---------|-------10888-7---||--------------] 
G[-------------7-pick--7^--9^--|-------6-7|--------------] 
D[---------------slide-x^--x^--|---------||--------------] 
A[---------------------5^--7^-------------|--------------] 
E[---------------------|------------------|--------------] 
RIFF4                    [         2x               ] 
e[--------------------g-e|--------------------------|----] 
B[-----------10-11-13-r-f|15-14---------------------|----] 
G[-7-9-11-12-x-x-xx-u-f|xx-xx---------------------|----] 
D[-x-x-x-xx-7--9--11-n-e|12-11-12h11------12h11----|----] 
A[-5-7-9--10----------g-c|------------1212-------1212----] 
E[--------------------e-t|--------------------------|----] 
RIFF5(THIS PLAYS ALONG WITH RIFF3 OF GUITAR 1 AT THE END OF THE SONG) 
[ 3x   [    2x     ]] 
e[---------------------------|------|-----------||-------] 
B[-9-7-6-7-9-11-13-13-14^-16^|------|10888-7----||-------] 
G[-x-x-x-x-x-x-xx-xx-xx^-xx^|7^--9^|--------6-7||-------] 
D[-7-5-4-5-7-9--11-11-12^-14^|x^--x^-------------|-------] 
A[---------------------------|5^--7^-------------|-------] 
E[---------------------------|-------------------|-------] 
RIFF5(cont.) 
e[-------------------------------------------------------] 
B[-6-7-9-11-13-14^---------------------------------------] 
G[-x-x-x-x-xx-xx^---------------------------------------] 
D[-4-5-7-9--11-12^---------------------------------------] 
A[-------------------------------------------------------] 
E[-------------------------------------------------------] 
              
Order: 
Guitar1  |  Guitar2 
---------|--------- 
    1    | 1 
    2    | 2 
    3    | 3 
    4    | 4 
    3    | 5 
End on D 
           
Notes: 
^      = play this note many, many times 
'....' = palm mute 
'o'    = repeat back to the '&' symbols. 
%      = build up 

***** `&' *********************************************
**     #                                             **
**     #     Any corrections, questions, comments,   **
**    _#_    etc. welcome!                           **
**   ( # )                                           **
**** `---' ********************************************





Comments


Popular Ace Troubleshooter tabs & chords
In My Dreams Chords
Kiss Goodnight Chords
Tonight Chords
1st Corinthians 13 Tabs
Chilly Minnesota Tabs
Estella Tabs
Tonight Tabs
Turn Round Tabs
Yesterday 1 Tabs
1 Corinthians 13 Ukulele


Song lyrics



↑ Back to top | Tablatures and chords are parodies/interpretations of the original songs. You may use it for private study, scholarship, research or language learning purposes only
© 2014 AZChords.com Contact us | Privacy policy | DMCA | Add/correct tabs | Request tabs | Top 50 tabs