>
 >
Fortress

Fortress Guitar Tabs

Ace Troubleshooter - Fortress chords, tabs, tablatures, lyrics

Guitar lessons | Add/correct | Request | Top 50 tabs Artists:  A B C D E F G H I J K L M N O P Q R S T U V W X Y Z 0-9

Fortress Guitar Tabs – Ace Troubleshooter

CD, Sheet music, Poster

Do you like Fortress? Share with your friends now
Tabs
Ace Troubleshooter

Guitar 1:       Drop D tuning
Guitar 2:       E tuning

Palm muting and strum patterns are for you to find out :)

s = slide to

Guitar 1  Do twice
E	|  -------------------------------------------------------------|
B	|  --7---------8---------10---------8---------------------------|
G	|  ----7-(8x)---7-(8x)-----7-(8x)----7-(8x)---------------------|
D	|  -------------------------------------------------------------|
A	|  -------------------------------------------------------------|
E	|  -------------------------------------------------------------|

Guitar 2  Comes in at 0:11
E    |  ---------------------------------------------------------------|
B    |  ---7---------8---------10---------8----------------------------|
G    |  -----7-(8x)---7-(8x)-----7-(8x)----7-(4x)----------------------|
D    |  ---------------------------------------------------------------|
A    |  ---------------------------------------------------------------|
E     |  --------------------------------------------------------------|

Guitar 1 + 2  at 0:22
E	|  -9- ---------------------------------------------------------|
B	|  10-(8x)------------------------------------------------------|
G	|  ------------------7------------------------------------------|
D	|  ------------------7------------------------------------------|
A	|  ------------------5------------------------------------------|
E	|  -------------------------------------------------------------|

Guitar 2  at 0:30  Do twice                Then strum and hold
E    |  ---------------------------------------|-----------------------|
B    |  ---------------------------------------|-----------------------|
G    |  -14-------12---11------- 12--11--------|---7-------------------|
D    |  ----(4x)-----------(4x)----------------|---7-------------------|
A    |  -12-------10----9--------10---9--------|---5-------------------|
E     |  ---------------------------------------|----------------------|

Verse  do twice
Guitar 1  at 0:34
E    |  --------------------------------------------------------------|
B    |  --------------------------------------------------------------|
G    |  -7---7-------7-------7------7----- 7---7----------------------|
D    |  -7---7----------7-7----7-7---7-- --7---7----------------------|
A    |  -5---5(6x)-------------------------4---4(6x)------------------|
E     |  -------------------------------------------------------------|

E    |  --------------------------------------------------------------|
B    |  --------------------------------------------------------------|
G    |  --6-----6------6-------------------------------6--------------|
D    |  ----7-7---7-7---7------ 5--5------5--4-4--------7-------------|
A    |  ------------------------5--5------5--4-4----------------------|
E     |  ------------------------5--5(3x)--5--4-4(4x)-----------------|

E    |  --------------------------------------------------------------|
B    |  --------------------------------------------------------------|
G    |  ----------------------------6---------------------------------|
D    |  --5-5-------5--4-4-----------7--------------------------------|
A    |  --5-5-------5--4-4--------------------------------------------|
E     |  --5-5(3x)---5--4-4(4x)---------------------------------------|

Guitar 2  Silent through verse, until 0:50, plays this riff
E    |  --------------------------------------------------------------|
B    |  --------------------------------------------------------------|
G    |  --------------------------------------------------------------|
D    |  ---4-5-4------------------------------------------------------|
A    |  -----------5-0------------------------------------------------|
E     |  ----------------3--------------------------------------------|

	Chorus
Guitar 1 + 2  at 0:56 strum this repeatedly
E    |  --------------------------------------------------------------|
B    |  --------------------------------------------------------------|
G    |  --------------------------------------------------------------|
D    |  -7------------------------------------------------------------|
A    |  -7------------------------------------------------------------|
E     |  -5-----------------------------------------------------------|
Guitar 2  at 0:59
E    |  --------------------------------------------------------------|
B    |  --------------------------------------------------------------|
G    |  -14-------12--11------12--11----------------------------------|
D    |  --------------------------------------------------------------|
A    |  -12(4x)---10---9(4x)--10--9-----------------------------------|
E     |  -------------------------------------------------------------|
Guitar 1  at 1:01  repeat twice
E    |  --------------------------------------------------------------|
B    |  --------------------------------------------------------------|
G    |  --------------------------------------------------------------|
D    |  --9-------7-------5-5--0-0-5-5--0-0---------------------------|
A    |  --9-------7-------5-5--0-0-5-5--0-0---------------------------|
E     |  --9(8x)---7(8x)---5-5--0-0-5-5--0-0--------------------------|

Guitar 2  at 1:01  repeat twice
E    |  --------------------------------------------------------------|
B    |  --------------------------------------------------------------|
G    |  --11-----9--------14----------12--12----11--11--6---7---------|
D    |  --------------------------------------------------------------|
A    |  --9(8x)--7(8x)----12(4x)----s-10--10--s--9---9--4---5---------|
E     |  -------------------------------------------------------------|
Guitar 2  at 1:24  strum once and hold
E    |  --------------------------------------------------------------|
B    |  --------------------------------------------------------------|
G    |  -7------------------------------------------------------------|
D    |  -7------------------------------------------------------------|
A    |  -5------------------------------------------------------------|
E     |  -------------------------------------------------------------|

Verse 2: same as verse 1
Chorus 2: same as Chorus 1

End of Chorus 2
Guitar 2-at 2:13  strum once and hold
E    |  --------------------------------------------------------------|
B    |  --------------------------------------------------------------|
G    |  -14-----------------------------------------------------------|
D    |  --------------------------------------------------------------|
A    |  -12-----------------------------------------------------------|
E     |  -------------------------------------------------------------|

Guitar 1  at 2:16 -
E    |  --------------------------------------------------------------|
B    |  --------------------------------------------------------------|
G    |  --------------------------------------------------------------|
D    |  --14--12------------------------------------------------------|
A    |  --------------------------------------------------------------|
E     |  -------------------------------------------------------------|

Interlude
After bass solo

Guitar 1  at 2:35  no distortion

E    |  --------------------------------------------------------------|
B    |  --------------------------------------------------------------|
G    |  --------------------------------------------------------------|
D    |  -7--9--11--12--14--16--18-------------------------------------|
A    |  -7--9--11--12--14--16--18-------------------------------------|
E     |  -------------------------------------------------------------|

Guitar 2  at 2:43
E    |  ---------------------------------------------------------------|
E    |  ---------------------------------------------------------------|
B    |  ---------------------------------------------------------------|
G    |  -7---------7---------------------------------------------------|
D    |  -7---------7---------------------------------------------------|
A      |  -5(12x)----5(4x)---------------------------------------------|
E    |  ---------------------------------------------------------------|

Guitar 1  at 2:46
E    |  --------------------------------------------------------------|
B    |  --------------------------------------------------------------|
G    |  -7-------7--------7--6----7--6-----7--6-----7--6--------------|
D    |  -7-------7--------------7--------7-------7--------7-----------|
A    |  -5(8x)--4(8x)------------------------------------------------|
E     |  -------------------------------------------------------------|


E    |  --------------------------------------------------------------|
B    |  --------------------------------------------------------------|
G    |  -7-------7------Pause for--7--6-----7--6-----7--6-------------|
D    |  -7-------7------guitar2------------7--------7---------7-------|
A    |  -5(8x)---4(8x)---then-----------------------------------------|
E     |  -------------------------------------------------------------|


E    |  --------------------------------------------------------------|
B    |  --------------------------------------------------------------|
G    |  -7--6---------------------------------------------------------|
D    |  --------7-----------------------------------------------------|
A    |  --------------------------------------------------------------|
E     |  -------------------------------------------------------------|


Guitar 2  at 2:46 (it actually plays some really high notes, but I
didn't take the time to figure them out.  If u do figure em out feel
free to send them to me and I'll add them in here)
E    |  --------------------------------------------------------------|
B    |  --------------------------------------------------------------|
G    |  -7-------7----------------------------7------7----------------|
D    |  -7-------7-------5--5--4--5--5--4-----7------7----------------|
A    |  -5(8x)---4(8x)---5--5--4--5--5--4-----5(8x)--4(8x)------------|
E     |  -----------------3--3--2--3--3--2----------------------------|

Guitar 2  everyone pauses, you do
E    |  --------------------------------------------------------------|
B    |  --------------------------------------------------------------|
G    |  -11-----------------------------------------------------------|
D    |  -----------then---5--5--4---5--5--4---------------------------|
A    |  -9-(4x)---------- 5--5--4---5--5--4---------------------------|
E     |  ------------------3--3--2---3--3--2--------------------------|

Guitar 1 + 2  at 3:08
E    |  --------------------------------------------------------------|
B    |  --------------------------------------------------------------|
G    |  -7------------------------------------------------------------|
D    |  -7------------------------------------------------------------|
A    |  -5(8x)--------------------------------------------------------|
E     |  -------------------------------------------------------------|

Guitar 1  at 3:10
E    |  --------------------------------------------------------------|
B    |  --------------------------------------------------------------|
G    |  -14-------12--12-----11--11----12--12-----14--14--------------|
D    |  --------------------------------------------------------------|
A    |  -12(4x)-s-10--10--s--9---9--s--10--10--s--12--12--------------|
E     |  -------------------------------------------------------------|


E    |  --------------------------------------------------------------|
B    |  --------------------------------------------------------------|
G    |  ----16--16-----18--18-----------------------------------------|
D    |  --------------------------------------------------------------|
A    |  -s--14--14--s--16--16-----------------------------------------|
E     |  -------------------------------------------------------------|


Guitar 2  at 3:10  Listen for strumming and sliding (Im getting tired
of tabbing)
E    |  --------------------------------------------------------------|
B    |  --------------------------------------------------------------|
G    |  -11--9--7--9--11-12--14---------------------------------------|
D    |  --------------------------------------------------------------|
A    |  -9---7--5--7--9--10--12---------------------------------------|
E     |  -------------------------------------------------------------|


Rest is pretty self-explanatory.  Any ?s just ask.





Comments


Popular Ace Troubleshooter tabs & chords
Anything Chords
Kiss Goodnight Chords
Se 101 Chords
1st Corinthians 13 Tabs
I Miss You Girl Tabs
In My Dreams Tabs
Out To Sea Tabs
Tempest Tabs
Turn Round Tabs
I Miss You Girl Ukulele


Song lyrics



↑ Back to top | Tablatures and chords are parodies/interpretations of the original songs. You may use it for private study, scholarship, research or language learning purposes only
© 2014 AZChords.com Contact us | Privacy policy | DMCA | Add/correct tabs | Request tabs | Top 50 tabs