» » »

Ace Troubleshooter, Don Trust That Girl Tabs (ver.1)

Artists:  A B C D E F G H I J K L M N O P Q R S T U V W X Y Z # 

Don Trust That Girl Tabs (ver.1)

Ace Troubleshooter Tabs
 Rating:
4/5 (4 votes)
Don	 Trust That Girl lessons Tabs too difficult? Try these video lessons and learn fast
1
                Tuning is in Standard... tune down half step if you want, but its recorded standard i believe!


(Homer Simpson: NO NO NO! DON'T STOP A'ROCKIN'!!!)

Intro:                                              End:

|--------------------------------------------------|-------|
|--------------------------------------------------|-------|
|-5-5-5-5------------------------------------------|-------|
|-5-5-5-5--5-5-5-5--3-3-x-3-3-x--3-3--6-6-6-6/5-5--|--5-5--|
|-3-3-3-3--5-5-5-5--3-3-x-3-3-x--3-3--6-6-6-6/5-5--|--5-5--|
|----------3-3-3-3--1-1-x-1-1-x--1-1--4-4-4-4/3-3--|--3-3--|

Verse:

|--------------------------------------------------|
|--------------------------------------------------|
|-5-5-5-5------------------------------------------|
|-3-3-3-3--5-5-5-5--3-3-3-3--5-5-5-5---------------|
|-3-3-3-3--5-5-5-5--3-3-3-3--5-5-5-5---------------|
|----------3-3-3-3--1-1-1-1--3-3-3-3---------------|

Chorus:

|-----------------------------------------------|
|-----------------------------------------------|
|-5-5-5-5---------------------------------------|
|-5-5-5-5--5-5-5-5--3-3--3-3--3-3--6-6-6-6/5-5--|
|-3-3-3-3--5-5-5-5--3-3--3-3--3-3--6-6-6-6/5-5--|
|----------3-3-3-3--1-1--1-1--1-1--4-4-4-4/3-3--|

Bridge:

This definitely doesn't sound exact, cuz 2 guitars do this, but it sounds kinda cool, so no worries eh? 

|-------------|
|-------------|
|-------------|
|-------------|
|-5-7-3-0-x2!-|
|-3-5-1-2-x2!-|
Pm.......

What i did for the fast part, is i played random octaves till the drums got done doing their part, but, be sensible, don't make it sound like cr*p! :)
            
Submit corrections

comments powered by Disqus
↑ Back to top | Ace Troubleshooter Tabs for Don Trust That Girl. Lyrics for acoustic guitar and electric guitar. 1 Tablatures and chords are parodies/interpretations of the original songs. You may use it for private study, scholarship, research or language learning purposes only