» » »

Ace Troubleshooter, 1st Corinthians 13 Tabs (ver.1)

Artists:  A B C D E F G H I J K L M N O P Q R S T U V W X Y Z # 

1st Corinthians 13 Tabs (ver.1)

Ace Troubleshooter Tabs
 Rating:
4/5 (4 votes)
1st Corinthians 13 lessons Tabs too difficult? Try these video lessons and learn fast
1
                Ace Troubleshooter

e-------------------------------------------------------------------------
B----------------------------------------------------------------------------
G-----------------------------------------------------------------------------
D 9-9-9-8-8--------9-9-9-8-8-------------------9-9--------------------- 
A 7-7-7-6-6--7----7-7-7-6-6--9-9-9---7-7----7-7--7-7---9-9------      Repeat 
E --------------5---------------- -7-7-7---5-5----------5-5---7-7---

e-------------------------------------------------------------------------------
B-------------------------------------------------------------------------------
G-------------------------------------------------------------------------------
D----- 9-------------9-------------------------------------------------
A--7--7-7---9--7--7--7---9-------------------------------------------------------
E--5-----5---7--5-----5---7------------------------------------------------------------
            
Submit corrections

comments powered by Disqus
↑ Back to top | Ace Troubleshooter Tabs for 1st Corinthians 13. Lyrics for acoustic guitar and electric guitar. 1 Tablatures and chords are parodies/interpretations of the original songs. You may use it for private study, scholarship, research or language learning purposes only