» » »

Ace Troubleshooter, 1 Corinthians 13 Chords (ver.1)

Artists:  A B C D E F G H I J K L M N O P Q R S T U V W X Y Z # 

1 Corinthians 13 Chords (ver.1)

Ace Troubleshooter Tabs
Rating:
0/5 (0 votes)
1 Corinthians 13 lessons Tabs too difficult? Try these video lessons and learn fast
                Ace Troubleshooter



Intro - E* Eb A  E* Eb B  Ab A  Ab B (2x) E

Verse 1:
E* A
C# B
A E

A E C# A Eb
E* A
C# B
A E
A E* B A B

Chorus:
C# B
A E
Ab
A
Ab
B *INTRO*

Verse 2:
E* A
C# B
A E

A E C# A Eb
E* A
C# B
A E
A E* B A B

CHORUS:
C# B
A E
Ab
A
Ab
B *INTRO*


BRIDGE:
[-------------------------------]
[-------------------------------]
[9-9-9-x---------6-6-6-6--------] play  this
[9-9-9-x-7-7-7-7-6-6-6-6-9-9-9-9]    -3x-
[7-7-6-x-7-7-7-7-4-4-4-4-9-9-9-9]
[--------5-5-5-5---------7-7-7-7]

[----12-----------------12----------------12-12-------]
[------12-------------12--12-------------------12-----]
[9-9--------------6-6-------14---------9-9------------]
[9-9------7-7-7-7-6-6----------9-9-9-9-9-9--------7-9-]
[7-7------7-7-7-7-4-4----------9-9-9-9-7-7--------7-9-]
[---------5-5-5-5--------------7-7-7-7------------5-7-]
[*****************************************************]
[With the above, all the chords are played longer than]
[shown, especially the last two.                      ]
[*****************************************************]

E* A
C# B
A E
A E C# B E* B - E* A C# B (4x)-

End With - E* E
            

comments powered by Disqus
↑ Back to top | Ace Troubleshooter Chords for 1 Corinthians 13. Lyrics for acoustic guitar and electric guitar. Tablatures and chords are parodies/interpretations of the original songs. You may use it for private study, scholarship, research or language learning purposes only