» » »

Ace Of Base, Beautiful Life Tabs (ver.1)

Artists:  A B C D E F G H I J K L M N O P Q R S T U V W X Y Z # 

Beautiful Life Tabs (ver.1)

Ace Of Base Tabs
 Rating:
4/5 (4 votes)
Beautiful Life lessons Tabs too difficult? Try these video lessons and learn fast
                -----------------------------------------------------------------------------
-----------------------------------------------------------------------------


Comments/Questions/Concerns e-mail me.

Capo: 3
Tuning: Standard

This rhythm repeats through out most of the entire song.  Enjoy:

    AM               DM                 G                C           EM
e|--0---0---0-0---|--1---1---3-1-1---|--3---3---3-3---|--0---0---0-0-0------|
B|--1---1---1-1---|--3---3---3-3-3---|--3---3---3-3---|--1---1---3-1-0------|
G|--2---2---2-2---|--2---2---2-2-2---|--4---4---4-4---|--0---0---0-0-0------|
D|--2---2---2-2---|--0---0---0-0-0---|--5---5---5-5---|--2---2---2-2-2------|
A|----------------|------------------|--5---5---5-5---|--3---3---3-3-2------|
E|----------------|------------------|--3---3---3-3---|---------------------|


There is a minor bridge part in the middle that is played.  Listen for it, goes 
like this:

    AM               DM
e|--0---0---------|---3---3---1---1-1-|
B|--1---1---------|---3---3---3---3-3-|
G|--2---2---------|---2---2---2---2-2-|   (This Part x2)
D|--2---2---------|---0---0---0---0-0-|
A|----------------|-------------------|
E|----------------|-------------------|
            
Submit corrections

comments powered by Disqus
↑ Back to top | Ace Of Base Tabs for Beautiful Life. Lyrics for acoustic guitar and electric guitar. Tablatures and chords are parodies/interpretations of the original songs. You may use it for private study, scholarship, research or language learning purposes only