» » »

Ace Frehley, Separate Tabs (ver.1)

Artists:  A B C D E F G H I J K L M N O P Q R S T U V W X Y Z # 

Separate Tabs (ver.1)

Ace Frehley Tabs
Rating:
0/5 (0 votes)
Separate lessons Tabs too difficult? Try these video lessons and learn fast
                Ace Frehley
Second sighting

I'm sorry but I dont know the Solo


e----------------------|-------------------|| 
B--------------3-------|-------------------|| 
G--------------2-------|--------------2----|| 
D---4-----5----0-------|----4----5----2----|| 
A---4-----5------------|----4----5----0----||
E---2-----3------------|----2----3---------|| X 4

e-----------------------------------------|--------------------|
B-----------------------------------------|--------------------|
G-----------------------------------------|--------------------|
D-----------------------------------------|--------------------|
A---2--------2-2--------2--2------ 2--2---|--------------------|
E---0--3-p-0-0-0-3-p-0--0--0-3-p-0-0--0---|--------------------|
verse 1:                                   stop lookin down ...
                                   


e-----------------------------------------|--------------------|
B-----------------------------------------|--------------------|
G-----------------------------------------|--------------------|
D-----------------------------------------|--------------------|
A---2--------2-2--------2--2------ 2--2---|--------------------|
E---0--3-p-0-0-0-3-p-0--0--0-3-p-0-0--0---|--------------------|
                                            Don't be a fool...
                                            

e-----------------------------------------|--------------------||
B-----------------------------------------|--------------------||
G-----------------------------------------|--------------------||
D-----------------------------------------|--------------------||
A---2--------2-2--------2--2------ 2--2---|-----7--5------5--4-||
E---0--3-p-0-0-0-3-p-0--0--0-3-p-0-0--0---|--0--5--3---0--3--2-|| X 2


e----------------------|-------------------|| 
B--------------3-------|-------------------|| 
G--------------2-------|--------------2----||   CHORUS
D---4-----5----0-------|----4----5----2----|| 
A---4-----5------------|----4----5----0----||
E---2-----3------------|----2----3---------|| X 4 
   You gotta separate.....    




Lyrics: 
Stop lookin' down and look up and proud of it
Don't be a fool and keep takin' all that sh*t
It's time you saw that it's wrong to be pushed aside
Stand up and fight and you soon will realize

CHORUS:

You gotta separate the men from the boys
If you hesitate, you might lose a lot of joys
So grab a hold of your girl, and give her everything you can
If you can penetrate, she'll make you feel like a man

Always remember your strength comes from deep inside
The world's a joke, so beware, you could lose your mind!
So don't be fooled by the lies lots of people say
Trust in yourself and you surely will find a way

Now Listen!

CHORUS:

You gotta separate the good from the bad
If you hesitate. you might end up feelin' sad
So grab a hold of your girl, squeexe her tight and don't let go
I you can penetrate, by then you'll surely know
            
Submit corrections

comments powered by Disqus
↑ Back to top | Ace Frehley Tabs for Separate. Lyrics for acoustic guitar and electric guitar. Tablatures and chords are parodies/interpretations of the original songs. You may use it for private study, scholarship, research or language learning purposes only