» » »

Ace Frehley, One Plus One Tabs (ver.1)

Artists:  A B C D E F G H I J K L M N O P Q R S T U V W X Y Z # 

One Plus One Tabs (ver.1)

Ace Frehley Tabs
Rating:
5/5 (1 vote)
One Plus One lessons Tabs too difficult? Try these video lessons and learn fast
                #


Intro:

E|----------------------------------------------------|
B|----------------------------------------------------|
G|--------------------------------1-4-4---------------|
D|------------7-7-7---------------2-4-4---------------|
A|--5-5-5-5---4-4-5-5---5-5-5-5-5-2-2-2---------------|
E|--2-2-3-3-------------2-2-3-3-2-0-------------------|

E|----------------------------------------------------|
B|----------------------------------------------------|
G|----------------------------------------------------|
D|------------7-7-7-----------------------------------|
A|--5-5-5-5---4-4-5-5---55442200----------------------|
E|--2-2-3-3---------------------332-------------------|

Ref:

E|----------------------------------------------------|
B|----------------------------------------------------|
G|--------------------------1-4-4---------------------|
D|----------7---------------2-4-4---------------------|
A|--5-5-5---4-5---5-5-5-5-5-2-2-2---------------------|
E|--3-2-3---------2-2-3-3-2-0-------------------------|

E|--------------------------------3-------------------|
B|--------------------------------3-------------------|
G|----------------------------------------------------|
D|------------7---------------------------------------|
A|--5-5-5-5---4-5---55442200------2-------------------|
E|--2-2-3-3-----------------332---3-------------------|

Verse: Play this 4 times
                    I"to this point the fourth time"
E|--2-----------3-----2-------------------------------|
B|--3-2-2-------3-2---3-2-2---------------------------|
G|--2-2-2-4-4-----2---2-2-2-4-4-----------------------|
D|--0-2-2-4-4-----2---0-2-2-4-4-----------------------|
A|----0-0-2-2---2-0-----0-0-2-2-----------------------|
E|--------------3-------------------------------------|

Bridge:

E|-0---3---0------------------------------------------|
B|-0---3---0--2-2-------------------------------------|
G|-0-------0--2-2-------------------------------------|
D|-2-------2--2-2-------------------------------------|
A|-2---2---2--0-0-------------------------------------|
E|-0---3---3------------------------------------------|

Intro:

Ref: One plus one is one, I now It's crazy but It's true.
     One plus one is one, and all I want is me and you.

Verse: It's mathematic, you now the score. When you talk about
       tearing me, is all that talk or something more.
       No complication, no compromise. No need to stop them
       figure it out.

Bridge: And when you disunited, but can't be behind it.

Ref: One plus one is one, I now It's crazy but It's true.
     One plus one is one, and all I want is me and you.


Verse: No calculations, no Ledded lies. We could kill the
       power of love, I'm sure It just multiplies.
       This love is solo, this love is right. I think we found
       the answer this time.

Bridge: There is no subtraction, from a wheel of faction.

Ref: One plus one is one, I now It's crazy but It's true.
     One plus one is one, and all I want is me and you.

Solo: Oh yeah, Oh baby common.

Ref: One plus one is one, I now It's crazy but It's true.
     One plus one is one, and all I want is me and you.

Ref: One plus one is one, I now It's crazy but It's true.
     One plus one is one, and all I want is me and you.

Magnus Johansson

--====================987654321_0==_--
            

comments powered by Disqus
↑ Back to top | Ace Frehley Tabs for One Plus One. Lyrics for acoustic guitar and electric guitar. Tablatures and chords are parodies/interpretations of the original songs. You may use it for private study, scholarship, research or language learning purposes only