» » »

Ace Frehley, I'm In Need Of Love Tabs (ver.1)

Artists:  A B C D E F G H I J K L M N O P Q R S T U V W X Y Z # 

I'm In Need Of Love Tabs (ver.1)

Ace Frehley Tabs
 Rating:
4.2/5 (5 votes)
I'm In Need Of Love lessons Tabs too difficult? Try these video lessons and learn fast
                I'm In Need Of Love by Ace Frehley




                 w/delay                          w/delay        repeat
e:------------------------------------------------------------------------|
B:------------------------------------3-----------------------------------|
G:---9-----------9/1---9/1---9/1------2-----2~----2/12---2/12---2/12------|
D:---7----9~--------------------------0-----2~----------------------------|
A:---0----7~--------------------------0-----0~----------------------------|
E:--------0~--------------------------------------------------------------|
  intro/verses



    "I'm in need...."                "And I'm hopin'..."
e:------------------------------------------------------------------|
B:------------------------------------------------------------------|
G:----4~------------5~------7~------------------5~------7~----9~----|
D:----4~------------5~------7~------------------5~------7~----9~----|
A:----2~------------3~------5~------------------3~------5~----7~----|
E:------------------------------------------------------------0~----|




   solo                                                             repeat
e:---------------------------------------------------------------------------|
B:---------------8----10/9---10-9----10/9---8-7---10/9---10-9---10/9---13-12-|
G:------7--7--7/9---------9-------9------9-----7------9------9------9-------1|
D:--7-9----------------------------------------------------------------------|
A:---------------------------------------------------------------------------|
E:---------------------------------------------------------------------------|





e:---------------------------------------------------------------------------|
B:-------15--15~-------------------------------------------------------------|
G:2------14b-14b~---14b-14-12----------------------------------------12------|
D:-----------------------------14-12-------------------------12/14/12--------|
A:-----------------------------------14--12/10----12-12/14/12------------12--|
E:---------------------------------------------------------------------------|





e:---------------------------------------------------------------------------|
B:-------------------------------------------------------------------------12|
G:----------------12-12----------------------------12/14/12/14-14/16/14/16---|
D:--------12/14/12----------------------12/14/12/14--------------------------|
A:12/14/12---------------12-12/14/12/14--------------------------------------|
E:---------------------------------------------------------------------------|





e:---------------------------------------------------------------------------|
B:15/12-15b-15b--15b/15----15b/15----15b/15---15b/15-----15b/15---14b/14---15|
G:---------------------12--------12--------12-------12---------12-------12---|
D:---------------------------------------------------------------------------|
A:---------------------------------------------------------------------------|
E:---------------------------------------------------------------------------|





e:--------------------------------15-----------------------------------------|
B:b/15---14b/14---15b/15----15b~~~~~15--15-14-12-----------------------------|
G:----12-------12-------12----------------------14-13-12-----------4/2/0-4/2/|
D:------------------------------------------------------14-13-12-------------|
A:---------------------------------------------------------------------------|
E:---------------------------------------------------------------------------|





e:---------------------------------------------------------------------------|
B:---------------------------------------------------------------------------|
G:0-4/2/0-4/2/0-4/2/0~---------4/2/0-4/2/0-4/2/0-4/2/0-4/2/0--------4/2/0-4/2|
D:---------------------4~-4~-------------------------------------------------|
A:---------------------------------------------------------------------------|
E:-----------------------------------------------------------2~-2~-----------|





e:---------------------------------------------------------------------------|
B:---------------------------------------------------------------------------|
G:/0-4/2/0-4/2/0-4/2/0--------4/2/0--5/3/0--6/4/0--7/5/0--8/6/0--9/7/0--10/8/|
D:---------------------4~-4~-------------------------------------------------|
A:---------------------------------------------------------------------------|
E:---------------------------------------------------------------------------|
            
Submit corrections

comments powered by Disqus
↑ Back to top | Ace Frehley Tabs for I'm In Need Of Love. Lyrics for acoustic guitar and electric guitar. Tablatures and chords are parodies/interpretations of the original songs. You may use it for private study, scholarship, research or language learning purposes only