» » »

Ace Enders And A Million Different People, The Only Thing I Have Left Tabs (ver.1)

Artists:  A B C D E F G H I J K L M N O P Q R S T U V W X Y Z # 

The Only Thing I Have Left Tabs (ver.1)

Ace Enders And A Million Different People Tabs
 Rating:
4/5 (6 votes)
The Only Thing I Have Left lessons Tabs too difficult? Try these video lessons and learn fast
                Band: Ace Enders And A Million Different People

Tuning: Standard

Verse
e-----2----------2--------------------|
b-----2----------2--------------------|
g-----4----------3--------------------|
d-----2----------4--------------------|
a-----4----------4--------------------|
e----------------2--------------------|
"It must have been a dream..."

Guitar 1
e---------------------------------------|
b---------------------------------------|
g-------11------------------------------|
d---13-----11---------------------------|
a---------------14-13-------------------|
e---------------------------------------|
right after "it must have been.."

Pre Chorus
e----4----0----2--------4----2----------|
b----4----0----2--------4----2----------|
g----4----1----3--------4----3----------|
d----6----2----4--------6----4----------|
a----6----2----4--------6----4----------|
e----4----0----2--------4----2----------|
"The only thing I have left..."

Chorus
e-----4----0----4----2------4----4----2--|
b-----4----0----5----2------5----4----2--|
g-----4----1----6----3------6----4----3--|
d-----6----2----6----4------6----6----4--|
a-----6----2----4----4------4----6----4--|
e-----4----0---------2-----------4----2--|

Bridge
e------0-----4-----2--------|
b------0-----4-----2--------|
g------1-----4-----3--------|
d------2-----6-----4--------|
a------2-----6-----4--------|
e------0-----4-----2--------|

Chorus

Outro (verse "It must have been a dream...")
            
Submit corrections

comments powered by Disqus
↑ Back to top | Ace Enders And A Million Different People Tabs for The Only Thing I Have Left. Lyrics for acoustic guitar and electric guitar. Tablatures and chords are parodies/interpretations of the original songs. You may use it for private study, scholarship, research or language learning purposes only