» » »

Ace Enders And A Million Different People, Sos Chords (ver.1)

Artists:  A B C D E F G H I J K L M N O P Q R S T U V W X Y Z # 

Sos Chords (ver.1)

Ace Enders And A Million Different People Tabs
 Rating:
4/5 (5 votes)
Sos lessons Tabs too difficult? Try these video lessons and learn fast
                Band: Ace Enders And A Million Different People

Hey, this is my tab for "SOS" by Ace Enders.
I remember seeing him play this and it seemed as if the chords were played the way I 
try to figure out the picking and struming patterns.
Let me know what you think.

Tuning: 
Guitar 1 Standard
Guitar 2 Drop D w/ Capo on 4th Fret (this is how Ace plays it)

Verse
Guitar 1
      E           C#m
e-----0-----------0---------------------|
b-----0-----------0---------------------|
g-----9-----------8---------------------|
d-----6-----------6---------------------|
a-----7-----------x---------------------|
e-----0-----------9---------------------|
"waiting here... I know I'll never see."

Guitar 2 (dont pick... its finger picked so listen to hear this part)
   Cadd9          Am
e----3------------0-------------------|
b----3------------0-------------------|
g----5------------4-------------------|
d----5------------5-------------------|
a----3------------0-------------------|
d-------------------------------------|

Pre Chorus
Guitar 1
      A
e-----0-------------------00*---------------|
b-----0-------------------00----------------|
g-----8-------------------22----------------|
d-----6-------------------22----------------|
a-----0-------------------00----------------|
e-------------------------------------------|
"but again that fate..."
* comes in right before the chorus kicks in

Guitar 2 (strum)
      F                   G
e-----3-------------------00----------|
b-----3-------------------00----------|
g-----5-------------------55----------|
d-----5-------------------55----------|
a-----3-------------------xx----------|
d-----3-------------------55----------|

Chorus
Guitar 1
(2x)
e-----0----------0----------|-----0-------|
b-----0----------0----------|-----0-------|
g-----9----------9----------|-----9-------|
d-----9----------9----------|-----9-------|
a-----7----------x----------|-----0-------|
e-----0----------9----------|-------------|
"SOS to loneliness..."    "Let it go..."

Guitar 2
e-----3----------0----------|-----3----|
b-----3----------0----------|-----3----|
g-----5----------4----------|-----5----|
d-----5----------5----------|-----5----|
a-----3----------0----------|-----3----|
d---------------------------|-----3----|

Bridge
Guitar 1
     C#m  Bm    A
e------0-----0----0----0-----------------|
b------0-----0----0----0-----------------|
g------9-----9----9----9-----------------|
d------9-----9----9----9-----------------|
a------x-----x----0----x-----------------|
e------9-----7---------7-----------------|
"I got a place..."

Guitar 2
e------3-----0------0-----------------|
b------3-----3------0-----------------|
g------5-----5------5-----------------|
d------5-----5------5-----------------|
a------3-----0------x-----------------|
d------3------------5-----------------|
            
Submit corrections

comments powered by Disqus
↑ Back to top | Ace Enders And A Million Different People Chords for Sos. Lyrics for acoustic guitar and electric guitar. Tablatures and chords are parodies/interpretations of the original songs. You may use it for private study, scholarship, research or language learning purposes only