» » »

Ace Enders And A Million Different People, Reintroduction Tabs (ver.1)

Artists:  A B C D E F G H I J K L M N O P Q R S T U V W X Y Z # 

Reintroduction Tabs (ver.1)

Ace Enders And A Million Different People Tabs
 Rating:
4/5 (4 votes)
Reintroduction lessons Tabs too difficult? Try these video lessons and learn fast
                Band: Ace Enders & A Million Different People

This is the opening track from Ace Ender's debute album,
"When I Hit The Ground". This song is only an intro to the album and is hands down one
the best tracks on the album. This song basically sets up the second track, "Take The
and Run". The song is very easy but if you have any questions or comments (requests 
please feel free to contact me. Thanks and enjoy!

Tuning: Standard
Intro
Guitar 1
e------------------------------|
b------------------------2-----|
g------2-----------2--2--------|
d----4---4-2-4---0--0----------|
a------------------------------|
e------------------------------|

Guitar 2
e---------0----------------0-----------------|
b---------0----------------3-----------------|
g---------2----------------2-----------------|
d---------2----------------0-----------------|
a---------x----------------------------------|
e---------2----------------------------------|

the high pitch part that you hear at times is just a high harmonic of the first chord (2x2200)
could be played two ways like this:
e----12---------|---------------|
b----10---------|------14-------|
g----11---------|------14-------|
d---------------|------12-------|
a---------------|---------------|
e---------------|---------------|

Verse

1st Guitar

e---------0----------------0-----------------|
b---------0----------------3-----------------|
g---------2----------------2-----------------|
d---------2----------------0-----------------|
a---------x----------------------------------|
e---------2----------------------------------|
 "I've been a ghost... question."

1st Guitar (two ways)
e-------------9----------9-----------9---------9--------|
b---------10---10----10----10----10----10---10---10-----|
g-----11----------11----------7-----------7-------------|
d-------------------------------------------------------|
a-------------------------------------------------------|
e-------------------------------------------------------|
or
e--------------------------------------|
b--------14----------14--------14------|
g------------14----------14--------14--|
d----12-----------12---------12--------|
a--------------------------------------|
e--------------------------------------|


"I've been a loss..."

Pre Chorus
e----0----2----0--------------|
b----0----2----3--------------|
g----1----2----2--------------|
d----2----4----0--------------|
a----2----4-------------------|
e----0----2-------------------|
"Now I surrender to you my love..."

(Train Noises)

Chorus
e------------------------------------------------|
b------------------------------------------------|
g------------------------------------------------|
d----777777-7-7-777777-7-7-777777-7-7-77777777---|
a----9999991111-9999991111-9999991111-88888888---|
e------------------------------------------------|
*some what Palm Muted
"the past eight years...."

The louder part
e-----------------------------|
b-----------------------------|
g---11----7----4----7---------|
d---11----7----4----7---------|
a----9----5----2----5---------|
e-----------------------------|

a second guitar plays this in the background
e--------------------------------------------------|
b--------------------------------------------------|
g--13-14-13-11-13-14-13-11-13-14-1311-10-10-11-13--|
d---x-x--x---x--x--x--x--x--x--x--x-x-x--x--x--x---|
a--11-12-11--9--11-12-11-9-11-12-11-9-8--8--9--11--|
e--------------------------------------------------|

Outro
e-------------------------------|
b-------------------------------|
g-------------------------------|
d-------------------------------|
a-----44-44--44-44-44-44-44-44--|
e-----22-22--22-22-22-22-22-22--|
*some what Palm Muted
*You can also use: x911xxx or x97xxx

End
            
Submit corrections

comments powered by Disqus
↑ Back to top | Ace Enders And A Million Different People Tabs for Reintroduction. Lyrics for acoustic guitar and electric guitar. Tablatures and chords are parodies/interpretations of the original songs. You may use it for private study, scholarship, research or language learning purposes only