Artists:  A B C D E F G H I J K L M N O P Q R S T U V W X Y Z # 

Rating:
5/5 (1 vote)

Hard to play? Try these video lessons and learn fast.
                (Guitar)


Tuning:

STANDARD - CAPO 2

(E B G D A e)

.=PALM MUTE
x=MUTE STRING
/=SLIDE
*=HARMONIC
~=LET RING

All notes relative to capo positioning, let all notes ring. If you like this,


Intro (2x)
E|--2-----2---0-----2-----2---0-----|
B|----3-----------3---3-----------3-|
G|----------------------------------|
D|--0---0---0---0---0---0---0---0---|
A|----------------------------------|
e|----------------------------------|

E|--2-----2---0-----2-----2---0-----|
B|----3-----------3---3-----------3-|
G|----------------------------------|
D|----------------------------------|
A|----------------------------------|
e|--3---3---3---3---3---3---3---3---|


Verse 1

"Waiting on my sign, my moment, my new guitar..."
E|--2-----2---0-----2-----2---0-----|
B|----3-----------3---3-----------3-|
G|----------------------------------|
D|--0---0---0---0---0---0---0---0---|
A|----------------------------------|
e|----------------------------------|

E|--2-----2---0-----2-----2---0-----|
B|----3-----------3---3-----------3-|
G|----------------------------------|
D|----------------------------------|
A|----------------------------------|
e|--3---3---3---3---3---3---3---3---|

"...Telling myself one day it will bring me..."
E|--2-----2---0-----2-----2---0-----|
B|----3-----------3---3-----------3-|
G|----------------------------------|
D|--0---0---0---0---0---0---0---0---|
A|----------------------------------|
e|----------------------------------|

"...oh so far..."
E|--2-----2---0-----2-----2---0-----|
B|----3-----------3---3-----------3-|
G|----------------------------------|
D|----------------------------------|
A|----------------------------------|
e|--3---3---3---3---3---3---3---3---|

"...But honestly, I've been wrong..."
E|--2-----0---------0-----0---0-----2-----2---------0-----0-------|
B|----3-------3-------3---------------3-------3-------3-------3---|
G|----------------------------------------------------------------|
D|----------------------------------0---0---0---0---0---0---0---0-|
A|--2---2---2---2-------------------------------------------------|
e|------------------3---3---3---3---------------------------------|


"...I know in my heart I've been right all along..."
E|--2-----0---------0-----0-|
B|----3-------3-------3-----|
G|--------------------------|
D|--------------------------|
A|--2---2---2---2-----------|
e|------------------3---3---|


"...Right all along..."
E|--2-----2---0-----2-----2---0-----|
B|----3-----------3---3-----------3-|
G|----------------------------------|
D|--0---0---0---0---0---0---0---0---|
A|----------------------------------|
e|----------------------------------|

"...I've been right all along..."
E|--2-----2---0-----2-----2---0-----|
B|----3-----------3---3-----------3-|
G|----------------------------------|
D|----------------------------------|
A|----------------------------------|
e|--3---3---3---3---3---3---3---3---|

"...Right all along..."
E|--2-----2---0-----2-----2---0-----|
B|----3-----------3---3-----------3-|
G|----------------------------------|
D|--0---0---0---0---0---0---0---0---|
A|----------------------------------|
e|----------------------------------|

"...right all along."
E|--2-----2---0-----2-----2---0-----2~-|
B|----3-----------3---3-----------3----|
G|-------------------------------------|
D|-------------------------------------|
A|-------------------------------------|
e|--3---3---3---3---3---3---3---3---0~-|
            
Hard to play? Try these video lessons and learn fast. | Correct




comments powered by Disqus
↑ Back to top | Tablatures and chords are parodies/interpretations of the original songs. You may use it for private study, scholarship, research or language learning purposes only