» » »

Ace Enders And A Million Different People, Emergency Tabs (ver.1)

Artists:  A B C D E F G H I J K L M N O P Q R S T U V W X Y Z # 

Emergency Tabs (ver.1)

Ace Enders And A Million Different People Tabs
 Rating:
4.3/5 (6 votes)
Emergency lessons Tabs too difficult? Try these video lessons and learn fast
                Standard Tuning, Capo 2

The other tab I found was alright, but noticed that it sounded slightly off, and it 
include the pull off and hammer ons. So I tabbed the song again with this video as a reference:

feel free to comment if anything sounds off. I play this without the capo, since I can't 
mine and I also can't sing with the capo. So to me it sounds good, but any suggestions 
welcomed :)

Chords (relative to capo):
   F   C  Gadd11 D/F#
e  x   x    x     x
B  1   1    1     3
G  2   0    0     2
D  3   2    0     0
A  3   3    2     0
E  x   x    3     2


intro x2
   (F)          (C)
e|--x------------x-------------|
B|--1------1-----1-------------|
G|--2--0h2----0--0-------------|
D|--3------------2--0h2p0------|
A|--3------------3--------3p0--|
E|--x------------x-------------|


verse 1
F                C
  On Monday I'd call
                 F
If I could even talk
               C
I should have known
e|--------------|
B|--------------|
G|--------------|  play after C
D|-0h2p0--------|
A|-------3p0----|
E|--------------|
F                C
  By Tuesday my phone
                     F
Was ringing off the hook
               C
So I'm comin' home
e|--------------|
B|--------------|
G|--------------|  play after C
D|-0h2p0--------|
A|-------3p0----|
E|--------------|

Pre-chorus
Gadd11    C
And sometimes
       Gadd11    C         F
All you need in life is emergency
Gadd11   C       Gadd11  C                F
To take time and figure out what you're doing here

Chorus
           F        C
And it's a shame
         F         C
To walk away from
                     F   C
                 F      C
              D/F#
And leave you here all alone, alone, alone

break x2
   (F)          (C)
e|--x------------x-------------|
B|--1------1-----1-------------|
G|--2--0h2----0--0-------------|
D|--3------------2--0h2p0------|
A|--3------------3--------3p0--|
E|--x------------x-------------|

verse 2
F                  C
  On Wednesday I'd leave
                     F
If I could get some sleep
                C
I just sit and think
e|--------------|
B|--------------|
G|--------------|  play after C
D|-0h2p0--------|
A|-------3p0----|
E|--------------|
F                 C
  By Thursday I'd hope
                         F
It would feel more like home
             C
But Friday falls...
e|--------------|
B|--------------|
G|--------------|  play after C
D|-0h2p0--------|
A|-------3p0----|
E|--------------|

Pre-chorus
Gadd11    C
And sometimes
       Gadd11    C         F
All you need in life is emergency
Gadd11   C       Gadd11  C                F
To take time and figure out what you're doing here

Chorus
F              C
And it's a shame
         F        C
To walk away from
                 F     C
                 F     C
               D/F#                       C
And leave you here all alone, alone, alone
F           C
  All alone
F           C
  All alone
F           C  F
  All alone
All alone

break x2
   (F)          (C)
e|--x------------x-------------|
B|--1------1-----1-------------|
G|--2--0h2----0--0-------------|
D|--3------------2--0h2p0------|
A|--3------------3--------3p0--|
E|--x------------x-------------|

F               C
  On Sundays I sit
                 F
And remember everything
               C
'Cause now they're done
            
Submit corrections

comments powered by Disqus
↑ Back to top | Ace Enders And A Million Different People Tabs for Emergency. Lyrics for acoustic guitar and electric guitar. Tablatures and chords are parodies/interpretations of the original songs. You may use it for private study, scholarship, research or language learning purposes only