» » »

Ac Dc, Spoilin For A Fight Tabs (ver.2)

Artists:  A B C D E F G H I J K L M N O P Q R S T U V W X Y Z # 

Spoilin For A Fight Tabs (ver.2)

Ac Dc Tabs
 Rating:
4/5 (4 votes)
Spoilin For A Fight lessons Tabs too difficult? Try these video lessons and learn fast
                                          Spoilin' For A Fight
                           AC/DC - BLACK ICE
Tuning: Standard

Legend:
p= pull off
h= hammer on
b= bend
/= slide
~= vibrato

Guitar 1: Angus Young
Guitar 2: Malcom Young

Intro:
Guitar 1 
e|------------|
B|------------|
G|-4-4-4-4-4--|
D|-4-4-4-4-4--|
A|-2-2-0-2-2--|
E|------------|

Guitar 1 
e|---------------------7---7------7--7------|
B|----------------10p7--7--7---10----7--7b--|
G|-4-4-4-4-4----9b-----------9b---------9b--|
D|-4-4-4-4-4--------------------------------|
A|-2-2-0-2-2--------------------------------|
E|------------------------------------------|

Guitar 2 
e|------------------------------------------|
B|------------------------------------------|
G|-4-4-4-4-4-----------------7--7-7-7-4-----|
D|-4-4-4-4-4-----------------7--7-7-7-4-----|
A|-2-2-0-2-2-----------------5--5-4-4-2-----|
E|------------------------------------------|


Verse:
Guitar 1 
e|------------|
B|------------|
G|-4-4-4-4-4--|
D|-4-4-4-4-4--|
A|-2-2-0-2-2--|
E|------------|

Guitar 2
e|------------|
B|------------|
G|-4-4-4-4-4--|
D|-4-4-4-4-4--|
A|-2-2-0-2-2--|
E|------------|


Guitar 1
e|------------------------------------------|
B|------------------------------------------|
G|-4-4-4-4-4-----------------7--7-7-7-4-----|
D|-4-4-4-4-4-----------------7--7-7-7-4-----|
A|-2-2-0-2-2-----------------5--5-4-4-2-----|
E|------------------------------------------|

Guitar 2
e|------------------------------------------|
B|------------------------------------------|
G|-4-4-4-4-4-----------------7--7-7-7-4-----|
D|-4-4-4-4-4-----------------7--7-7-7-4-----|
A|-2-2-0-2-2-----------------5--5-4-4-2-----|
E|------------------------------------------|


Guitar 1 
e|------------|
B|------------|
G|-4-4-4-4-4--|
D|-4-4-4-4-4--|
A|-2-2-0-2-2--|
E|------------|

Guitar 2
e|------------|
B|------------|
G|-4-4-4-4-4--|
D|-4-4-4-4-4--|
A|-2-2-0-2-2--|
E|------------|


Guitar 1
e|------------------------------------------|
B|------------------------------------------|
G|-4-4-4-4-4-----------------7--7-7-7-4-----|
D|-4-4-4-4-4-----------------7--7-7-7-4-----|
A|-2-2-0-2-2-----------------5--5-4-4-2-----|
E|------------------------------------------|

Guitar 2
e|------------------------------------------|
B|------------------------------------------|
G|-4-4-4-4-4-----------------7--7-7-7-4-----|
D|-4-4-4-4-4-----------------7--7-7-7-4-----|
A|-2-2-0-2-2-----------------5--5-4-4-2-----|
E|------------------------------------------|


Guitar 1
e|------------|
B|------------|
G|-4-4-4-4-4--|
D|-4-4-4-4-4--|
A|-2-2-0-2-2--|
E|------------|

Guitar 2
e|------------|
B|------------|
G|-4-4-2-1-4--|
D|-4-4-2-2-4--|
A|-2-2-----2--|
E|------------|


Guitar 1
e|------------------------------------------|
B|------------------------------------------|
G|-4-4-4-4-4-----------------7--7-7-7-4-----|
D|-4-4-4-4-4-----------------7--7-7-7-4-----|
A|-2-2-0-2-2-----------------5--5-4-4-2-----|
E|------------------------------------------|

Guitar 2
e|-------------------------------------------|
B|-------------------------------------------|
G|-4-4-2-1-4-----------------7--7-7-7-4------|
D|-4-4-2-2-4-----------------7--7-7-7-4------|
A|-2-2-----2-----------------5--5-4-4-2------|
E|-------------------------------------------|


Guitar 1
e|------------|
B|------------|
G|-4-4-4-4-4--|
D|-4-4-4-4-4--|
A|-2-2-0-2-2--|
E|------------|

Guitar 2
e|------------|
B|------------|
G|-4-4-2-1-4--|
D|-4-4-2-2-4--|
A|-2-2-----2--|
E|------------|


Guitar 1
e|------------------------------------------|
B|------------------------------------------|
G|-4-4-4-4-4-----------------7--7-7-7-4-----|
D|-4-4-4-4-4----11b11p9------7--7-7-7-4-----|
A|-2-2-0-2-2-----------------5--5-4-4-2-----|
E|------------------------------------------|

Guitar 2
e|-------------------------------------------|
B|-------------------------------------------|
G|-4-4-2-1-4-----------------7--7-7-7-4------|
D|-4-4-2-2-4-----------------7--7-7-7-4------|
A|-2-2-----2-----------------5--5-4-4-2------|
E|-------------------------------------------|


Pre-Chorus:
Guitar 1
e|-----------------------|
B|-----------------------|
G|-1----1----1------2----|
D|-2----2----2------2----|
A|-2----2----2------0----|
E|-0----0----0-----------|

Guitar 2
e|-----------------------|
B|-----------------------|
G|-1----1----1------2----|
D|-2----2----2------2----|
A|-2----2----2------0----|
E|-0----0----0-----------|


Chorus:
Guitar 1 
e|---------------------7---7------7--7------|
B|----------------10p7--7--7---10----7--7b--|
G|-4-4-4-4-4----9b-----------9b---------9b--|
D|-4-4-4-4-4--------------------------------|
A|-2-2-0-2-2--------------------------------|
E|------------------------------------------|

Guitar 2 
e|------------------------------------------|
B|------------------------------------------|
G|-4-4-4-4-4-----------------7--7-7-7-4-----|
D|-4-4-4-4-4-----------------7--7-7-7-4-----|
A|-2-2-0-2-2-----------------5--5-4-4-2-----|
E|------------------------------------------|


Guitar 1 
e|---------------------7---7------7--7------|
B|----------------10p7--7--7---10----7--7b--|
G|-4-4-4-4-4----9b-----------9b---------9b--|
D|-4-4-4-4-4--------------------------------|
A|-2-2-0-2-2--------------------------------|
E|------------------------------------------|

Guitar 2 
e|------------------------------------------|
B|------------------------------------------|
G|-4-4-4-4-4-----------------7--7-7-7-4-----|
D|-4-4-4-4-4-----------------7--7-7-7-4-----|
A|-2-2-0-2-2-----------------5--5-4-4-2-----|
E|------------------------------------------|


Guitar 1 
e|---------------------7---7------7--7------|
B|----------------10p7--7--7---10----7--7b--|
G|-4-4-4-4-4----9b-----------9b---------9b--|
D|-4-4-4-4-4--------------------------------|
A|-2-2-0-2-2--------------------------------|
E|------------------------------------------|

Guitar 2 
e|------------------------------------------|
B|------------------------------------------|
G|-4-4-4-4-4-----------------7--7-7-7-4-----|
D|-4-4-4-4-4-----------------7--7-7-7-4-----|
A|-2-2-0-2-2-----------------5--5-4-4-2-----|
E|------------------------------------------|


Guitar 1
e|-10~------7--|          |----------|
B|-----7b-7-7--|          |----------|
G|-----9b------| x3 then: |----------|
D|-------------|          |-2-2-2-2--|
A|-------------|          |-2-2-2-2--|
E|-------------|          |-0-0-0-0--|

Guitar 2
e|------------|           |----------|
B|------------|           |----------|
G|-4-4-4-4-4--| x3 then:  |----------|
D|-4-4-4-4-4--|           |-2-2-2-2--|
A|-2-2-0-2-2--|           |-2-2-2-2--|
E|------------|           |-0-0-0-0--|


Verse:
Guitar 1 
e|------------|
B|------------|
G|-4-4-4-4-4--|
D|-4-4-4-4-4--|
A|-2-2-0-2-2--|
E|------------|

Guitar 2
e|------------|
B|------------|
G|-4-4-4-4-4--|
D|-4-4-4-4-4--|
A|-2-2-0-2-2--|
E|------------|


Guitar 1
e|------------------------------------------|
B|------------------------------------------|
G|-4-4-4-4-4-----------------7--7-7-7-4-----|
D|-4-4-4-4-4-----------------7--7-7-7-4-----|
A|-2-2-0-2-2-----------------5--5-4-4-2-----|
E|------------------------------------------|

Guitar 2
e|------------------------------------------|
B|------------------------------------------|
G|-4-4-4-4-4-----------------7--7-7-7-4-----|
D|-4-4-4-4-4-----------------7--7-7-7-4-----|
A|-2-2-0-2-2-----------------5--5-4-4-2-----|
E|------------------------------------------|


Guitar 1 
e|------------|
B|------------|
G|-4-4-4-4-4--|
D|-4-4-4-4-4--|
A|-2-2-0-2-2--|
E|------------|

Guitar 2
e|------------|
B|------------|
G|-4-4-4-4-4--|
D|-4-4-4-4-4--|
A|-2-2-0-2-2--|
E|------------|


Guitar 1
e|------------------------------------------|
B|------------------------------------------|
G|-4-4-4-4-4-----------------7--7-7-7-4-----|
D|-4-4-4-4-4-----------------7--7-7-7-4-----|
A|-2-2-0-2-2-----------------5--5-4-4-2-----|
E|------------------------------------------|

Guitar 2
e|------------------------------------------|
B|------------------------------------------|
G|-4-4-4-4-4-----------------7--7-7-7-4-----|
D|-4-4-4-4-4-----------------7--7-7-7-4-----|
A|-2-2-0-2-2-----------------5--5-4-4-2-----|
E|------------------------------------------|


Guitar 1
e|------------|
B|------------|
G|-4-4-4-4-4--|
D|-4-4-4-4-4--|
A|-2-2-0-2-2--|
E|------------|

Guitar 2
e|------------|
B|------------|
G|-4-4-2-1-4--|
D|-4-4-2-2-4--|
A|-2-2-----2--|
E|------------|


Guitar 1
e|------------------------------------------|
B|------------------------------------------|
G|-4-4-4-4-4-----------------7--7-7-7-4-----|
D|-4-4-4-4-4-----------------7--7-7-7-4-----|
A|-2-2-0-2-2-----------------5--5-4-4-2-----|
E|------------------------------------------|

Guitar 2
e|-------------------------------------------|
B|-------------------------------------------|
G|-4-4-2-1-4-----------------7--7-7-7-4------|
D|-4-4-2-2-4-----------------7--7-7-7-4------|
A|-2-2-----2-----------------5--5-4-4-2------|
E|-------------------------------------------|


Guitar 1
e|------------|
B|------------|
G|-4-4-4-4-4--|
D|-4-4-4-4-4--|
A|-2-2-0-2-2--|
E|------------|

Guitar 2
e|------------|
B|------------|
G|-4-4-2-1-4--|
D|-4-4-2-2-4--|
A|-2-2-----2--|
E|------------|


Guitar 1
e|------------------------------------------|
B|------------------------------------------|
G|-4-4-4-4-4-----------------7--7-7-7-4-----|
D|-4-4-4-4-4----11b11p9------7--7-7-7-4-----|
A|-2-2-0-2-2-----------------5--5-4-4-2-----|
E|------------------------------------------|

Guitar 2
e|-------------------------------------------|
B|-------------------------------------------|
G|-4-4-2-1-4-----------------7--7-7-7-4------|
D|-4-4-2-2-4-----------------7--7-7-7-4------|
A|-2-2-----2-----------------5--5-4-4-2------|
E|-------------------------------------------|


Pre-Chorus:
Guitar 1
e|-----------------------|
B|-----------------------|
G|-1----1----1------2----|
D|-2----2----2------2----|
A|-2----2----2------0----|
E|-0----0----0-----------|

Guitar 2
e|-----------------------|
B|-----------------------|
G|-1----1----1------2----|
D|-2----2----2------2----|
A|-2----2----2------0----|
E|-0----0----0-----------|


Chorus:
Guitar 1 
e|---------------------7---7------7--7------|
B|----------------10p7--7--7---10----7--7b--|
G|-4-4-4-4-4----9b-----------9b---------9b--|
D|-4-4-4-4-4--------------------------------|
A|-2-2-0-2-2--------------------------------|
E|------------------------------------------|

Guitar 2 
e|------------------------------------------|
B|------------------------------------------|
G|-4-4-4-4-4-----------------7--7-7-7-4-----|
D|-4-4-4-4-4-----------------7--7-7-7-4-----|
A|-2-2-0-2-2-----------------5--5-4-4-2-----|
E|------------------------------------------|


Guitar 1 
e|---------------------7---7------7--7------|
B|----------------10p7--7--7---10----7--7b--|
G|-4-4-4-4-4----9b-----------9b---------9b--|
D|-4-4-4-4-4--------------------------------|
A|-2-2-0-2-2--------------------------------|
E|------------------------------------------|

Guitar 2 
e|------------------------------------------|
B|------------------------------------------|
G|-4-4-4-4-4-----------------7--7-7-7-4-----|
D|-4-4-4-4-4-----------------7--7-7-7-4-----|
A|-2-2-0-2-2-----------------5--5-4-4-2-----|
E|------------------------------------------|


Guitar 1 
e|---------------------7---7------7--7------|
B|----------------10p7--7--7---10----7--7b--|
G|-4-4-4-4-4----9b-----------9b---------9b--|
D|-4-4-4-4-4--------------------------------|
A|-2-2-0-2-2--------------------------------|
E|------------------------------------------|

Guitar 2 
e|------------------------------------------|
B|------------------------------------------|
G|-4-4-4-4-4-----------------7--7-7-7-4-----|
D|-4-4-4-4-4-----------------7--7-7-7-4-----|
A|-2-2-0-2-2-----------------5--5-4-4-2-----|
E|------------------------------------------|


Guitar 1
e|-10~------7--|          |----------|
B|-----7b-7-7--|          |----------|
G|-----9b------| x3 then: |----------|
D|-------------|          |-2-2-2-2--|
A|-------------|          |-2-2-2-2--|
E|-------------|          |-0-0-0-0--|

Guitar 2
e|------------|           |----------|
B|------------|           |----------|
G|-4-4-4-4-4--| x3 then:  |----------|
D|-4-4-4-4-4--|           |-2-2-2-2--|
A|-2-2-0-2-2--|           |-2-2-2-2--|
E|------------|           |-0-0-0-0--|

Outro:
Guitar 1 
e|------------|
B|------------|
G|-4-4-4-4-4--| x3
D|-4-4-4-4-4--|
A|-2-2-0-2-2--|
E|------------|

Guitar 2
e|------------|
B|------------|
G|-4-4-4-4-4--| x3
D|-4-4-4-4-4--|
A|-2-2-0-2-2--|
E|------------|


Guitar 1
e|----------|
B|----------|
G|----------|
D|-2-2-2-2--|
A|-2-2-2-2--|
E|-0-0-0-0--|

Guitar 2
e|----------|
B|----------|
G|----------|
D|-2-2-2-2--|
A|-2-2-2-2--|
E|-0-0-0-0--|
            
Submit corrections

comments powered by Disqus
↑ Back to top | Ac Dc Tabs for Spoilin For A Fight. Lyrics for acoustic guitar and electric guitar. Tablatures and chords are parodies/interpretations of the original songs. You may use it for private study, scholarship, research or language learning purposes only