>
 >
Sink The Pink 3

Sink The Pink 3 Guitar Tabs

Ac Dc - Sink The Pink 3 chords, tabs, tablatures, lyrics

Guitar lessons | Add/correct | Request | Top 50 tabs Artists:  A B C D E F G H I J K L M N O P Q R S T U V W X Y Z 0-9

Sink The Pink 3 Guitar Tabs – Ac Dc

CD, Sheet music, Poster

Do you like Sink The Pink 3? Share with your friends now
TabsTabs v2Tabs v3Tabs v4
**************************************************************************
                           Sink the Pink-Ac Dc
**************************************************************************

tuning standard: E B G D A e

Angus
E.----------3-|
B.----------3-|
G.----------0-|
D.3--3------0-|
A.1/5--3--3-x-|
e.-----1/5--3-|
Malcolm
E.----------3-|
B.----------3-|
G.----------0-|
D.3--3------0-|
A.1/5--3--3-x-|
e.-----1/5--3-|

Angus
E.------------------------------------------------------------------------|
B.12-13-15-15-13-12-10-10-8-10-6-6-6-6-6-6-8-10-8-8-8-8-8-8-8-8-8-8-8-8-8-|
G.-0--0--0--0--0--0--0--0-0--0-0-0-0-0-0-0-0--0-0-0-0-0-0-0-0-0-0-0-0-0-0-|
D.------------------------------------------------------------------------|
A.------------------------------------------------------------------------|
e.------------------------------------------------------------------------|
Malcolm                                         G
E.----------------------------------------------3------------------------|
B.----------------------------------------------3------------------------|
G.----------------------------------------------0------------------------|
D.----------------------------------------------0------------------------|
A.----------------------------------------------x------------------------|
e.----------------------------------------------3------------------------|
(repeat this 2 times except on the second malcolm hits a G at the start)

Angus
E.3-3------------3-3----|
B.3-3-1-1--1-1-1-3-3----|
G.0-0-0-0--0-0-0-0-0----|
D.0-0-2-2--2-2-2-0-0----|
A.x-x-3-3--3-3-3-x-x----|   x4
e.3-3------------3-3----|
Malcolm(skips the first one)
E.3-3------------3-3----|
B.3-3-1-1--1-1-1-3-3----|
G.0-0-0-0--0-0-0-0-0----|
D.0-0-2-2--2-2-2-0-0----|
A.x-x-3-3--3-3-3-x-x----|   x3
e.3-3------------3-3----|

Angus
E.3-3-------------------|
B.3-3-1-1--1-1-1-1-1----|
G.0-0-0-0--0-0-0-0-0----|   x4
D.0-0-2-2--2-2-2-2-2----|
A.x-x-3-3--3-3-3-3-3----|
e.3-3-------------------|
Malcolm
E.3-3--------------------|
B.3-3-1-1--1-1-1-1-1-----|
G.0-0-0-0--0-0-0-0-0-----|
D.0-0-2-2--2-2-2-2-2-----|    x4
A.x-x-3-3--3-3-3-3-3-----|
e.3-3--------------------|
Put your gear into fire
lay your bullets on the ground
turn your head to desire
There's a womens going down

Angus
E.--------------------|
B.--------------------|
G.5-5-4--5-5-4--5-5-4-|
D.5-5-4--5-5-4--5-5-4-|
A.3-3-2--3-3-2--3-3-2-|
e.--------------------|
Malcolm
E.--------------------|
B.--------------------|
G.5-5-4--5-5-4--5-5-4-|
D.5-5-4--5-5-4--5-5-4-|
A.3-3-2--3-3-2--3-3-2-|
e.--------------------|
she said she'll rough you up, all the way
gonna spit you out, count your days

Angus
E.--------------------------|
B.---3--------------3-------|
G.---2------5-------2-----3-|
D.---0------5-------0-----3-|
A.------3-2-3---3-2---3-2-1-|
e.--------------------------|
Malcolm
E.--------------------------|
B.---3--------------3-------|
G.---2------5-------2-----3-|
D.---0------5-------0-----3-|
A.------3-2-3---3-2---3-2-1-|
e.--------------------------|
she said choice is yours casually
so why dont you do what comes naturally

Angus
E.----------|
B.----------|
G.----------|
D.3--3------|
A.1/5--3--3-|
e.-----1/5--|
Malcolm
E.----------|
B.----------|
G.----------|
D.3--3------|
A.1/5--3--3-|
e.-----1/5--|

Angus
E.3-3------------3-3----|
B.3-3-1-1--1-1-1-3-3----|
G.0-0-0-0--0-0-0-0-0----|   x4
D.0-0-2-2--2-2-2-0-0----|
A.x-x-3-3--3-3-3-x-x----|
e.3-3------------3-3----|
Malcolm
E.3-3------------3-3-----|
B.3-3-1-1--1-1-1-3-3-----|
G.0-0-0-0--0-0-0-0-0-----|    x4
D.0-0-2-2--2-2-2-0-0-----|
A.x-x-3-3--3-3-3-x-x-----|
e.3-3------------3-3-----|
Sink the pink
Its all the fashion
drink the drink
its old fashioned

Angus
E.3-3-----|
B.3-3-1-1-|
G.0-0-0-0-|
D.0-0-2-2-|
A.x-x-3-3-| x4
e.3-3-----|
Malcolm
E.3-3-----|
B.3-3-1-1-|
G.0-0-0-0-|
D.0-0-2-2-|
A.x-x-3-3-| x4
e.3-3-----|
Gimme water
Gimme wine
im gonna show you
a good time

Angus
E.3-3------------3-3-|
B.3-3-1-1--1-1-1-3-3-|
G.0-0-0-0--0-0-0-0-0-|
D.0-0-2-2--2-2-2-0-0-|
A.x-x-3-3--3-3-3-x-x-|
e.3-3------------3-3-|
Malcolm
E.3-3------------3-3-|
B.3-3-1-1--1-1-1-3-3-|
G.0-0-0-0--0-0-0-0-0-|
D.0-0-2-2--2-2-2-0-0-|
A.x-x-3-3--3-3-3-x-x-|
e.3-3------------3-3-|
sink the pink

Angus
E.3-3-----63---------|
B.3-3-1-1----36-5-3--|
G.0-0-0-0-------5-3--|
D.0-0-2-2----------5-|
A.x-x-3-3------------|
e.3-3----------------|
Malcolm
E.3-3-----63---------|
B.3-3-1-1----36-5-3--|
G.0-0-0-0-------5-3--|
D.0-0-2-2----------5-|
A.x-x-3-3------------|
e.3-3----------------|
sink the pink

Angus
E.3-3-------------------|
B.3-3-1-1--1-1-1-1-1----|
G.0-0-0-0--0-0-0-0-0----|   x4
D.0-0-2-2--2-2-2-2-2----|
A.x-x-3-3--3-3-3-3-3----|
e.3-3-------------------|
Malcolm
E.3-3--------------------|
B.3-3-1-1--1-1-1-1-1-----|
G.0-0-0-0--0-0-0-0-0-----|
D.0-0-2-2--2-2-2-2-2-----|    x4
A.x-x-3-3--3-3-3-3-3-----|
e.3-3--------------------|
got a fever runnin high
give you wings to make you fly
she schooled you like a fool
she made you break all the rules

Angus
E.--------------------|
B.--------------------|
G.5-5-4--5-5-4--5-5-4-|
D.5-5-4--5-5-4--5-5-4-|
A.3-3-2--3-3-2--3-3-2-|
e.--------------------|
Malcolm
E.--------------------|
B.--------------------|
G.5-5-4--5-5-4--5-5-4-|
D.5-5-4--5-5-4--5-5-4-|
A.3-3-2--3-3-2--3-3-2-|
e.--------------------|
she wanna get a shot, hit the spot
then im gonna rack 'em up, get that hot

Angus
E.--------------------------|
B.---3--------------3-------|
G.---2------5-------2-----3-|
D.---0------5-------0-----3-|
A.------3-2-3---3-2---3-2-1-|
e.--------------------------|
Malcolm
E.--------------------------|
B.---3--------------3-------|
G.---2------5-------2-----3-|
D.---0------5-------0-----3-|
A.------3-2-3---3-2---3-2-1-|
e.--------------------------|
she said make it good, satisfy
you know that womens got, jealous eyes

Angus
E.----------|
B.----------|
G.----------|
D.3--3------|
A.1/5--3--3-|
e.-----1/5--|
Malcolm
E.----------|
B.----------|
G.----------|
D.3--3------|
A.1/5--3--3-|
e.-----1/5--|

Angus
E.3-3------------3-3----|
B.3-3-1-1--1-1-1-3-3----|
G.0-0-0-0--0-0-0-0-0----|   x4
D.0-0-2-2--2-2-2-0-0----|
A.x-x-3-3--3-3-3-x-x----|
e.3-3------------3-3----|
Malcolm
E.3-3------------3-3-----|
B.3-3-1-1--1-1-1-3-3-----|
G.0-0-0-0--0-0-0-0-0-----|    x4
D.0-0-2-2--2-2-2-0-0-----|
A.x-x-3-3--3-3-3-x-x-----|
e.3-3------------3-3-----|
Sink the pink
Its all the fashion
drink the drink
its old fashioned

Angus
E.3-3-----|
B.3-3-1-1-|
G.0-0-0-0-|
D.0-0-2-2-|
A.x-x-3-3-| x4
e.3-3-----|
Malcolm
E.3-3-----|
B.3-3-1-1-|
G.0-0-0-0-|
D.0-0-2-2-|
A.x-x-3-3-| x4
e.3-3-----|
Gimme water
Gimme wine
im gonna show you
a good time

Angus
E.3-3------------3-3-|
B.3-3-1-1--1-1-1-3-3-|
G.0-0-0-0--0-0-0-0-0-|
D.0-0-2-2--2-2-2-0-0-|
A.x-x-3-3--3-3-3-x-x-|
e.3-3------------3-3-|
Malcolm
E.3-3------------3-3-|
B.3-3-1-1--1-1-1-3-3-|
G.0-0-0-0--0-0-0-0-0-|
D.0-0-2-2--2-2-2-0-0-|
A.x-x-3-3--3-3-3-x-x-|
e.3-3------------3-3-|
sink the pink

Angus
E.3-3-----63---------|
B.3-3-1-1----36-5-3--|
G.0-0-0-0-------5-3--|
D.0-0-2-2----------5-|
A.x-x-3-3------------|
e.3-3----------------|
Malcolm
E.3-3-----63---------|
B.3-3-1-1----36-5-3--|
G.0-0-0-0-------5-3--|
D.0-0-2-2----------5-|
A.x-x-3-3------------|
e.3-3----------------|
sink the pink

Angus
E.------------------------------------------------------------------------|
B.12-13-15-15-13-12-10-10-8-10-6-6-6-6-6-6-8-10-8-8-8-8-8-8-8-8-8-8-8-8-8-|
G.-0--0--0--0--0--0--0--0-0--0-0-0-0-0-0-0-0--0-0-0-0-0-0-0-0-0-0-0-0-0-0-|
D.------------------------------------------------------------------------|
A.------------------------------------------------------------------------|
e.------------------------------------------------------------------------|
Malcolm(skips the first one)
E.---------------------------------------------3-------------------------|
B.---------------------------------------------3-------------------------|
G.---------------------------------------------0-------------------------|
D.3--------------------------------------------0-------------------------|
A.3--------------------------------------------x-------------------------|
e.1--------------------------------------------3-------------------------|

Angus
E.---------------------------------------------------------
B.-----------6b---------------------------6b------------6b-
G.5-54b-5-54b---5-54b-5-54b-3b-5-54b-5-54b---5-54b-5-54b---
D.---------------------------------------------------------
A.---------------------------------------------------------
e.---------------------------------------------------------
Malcolm
E.--------------------|
B.--------------------|
G.5-5-4--5-5-4--5-5-4-|
D.5-5-4--5-5-4--5-5-4-|
A.3-3-2--3-3-2--3-3-2-|
e.--------------------|
i constantely change it but try this
Angus
E.------6-15-15-15p3p----------------------------------------|
B.8--86---------------13-15-15-15-13-15-13-------------------|
G.-----------------------------------------15-17-15-17-15-17-|
D.-----------------------------------------------------------|
A.-----------------------------------------------------------|
e.-----------------------------------------------------------|
Malcolm
E.------------------------------------|
B.---3--------------3-----------------|
G.---2------5-------2-----3-----------|
D.---0------5-------0-----3--3--3-----|
A.------3-2-3---3-2---3-2-1--1/5-3--3-|
e.-------------------------------1/5--|

Angus
E.3-3------------3-3----|
B.3-3-1-1--1-1-1-3-3----|
G.0-0-0-0--0-0-0-0-0----|   x4
D.0-0-2-2--2-2-2-0-0----|
A.x-x-3-3--3-3-3-x-x----|
e.3-3------------3-3----|
Malcolm
E.3-3------------3-3-----|
B.3-3-1-1--1-1-1-3-3-----|
G.0-0-0-0--0-0-0-0-0-----|    x4
D.0-0-2-2--2-2-2-0-0-----|
A.x-x-3-3--3-3-3-x-x-----|
e.3-3------------3-3-----|
Sink the pink
Its all the fashion
drink the drink
its old fashioned

Angus
E.3-3-----|
B.3-3-1-1-|
G.0-0-0-0-|
D.0-0-2-2-|
A.x-x-3-3-| x4
e.3-3-----|
Malcolm
E.3-3-----|
B.3-3-1-1-|
G.0-0-0-0-|
D.0-0-2-2-|
A.x-x-3-3-| x4
e.3-3-----|
Gimme water
Gimme wine
im gonna show you
a good time

Angus
E.3-3------------3-3-|
B.3-3-1-1--1-1-1-3-3-|
G.0-0-0-0--0-0-0-0-0-|
D.0-0-2-2--2-2-2-0-0-|
A.x-x-3-3--3-3-3-x-x-|
e.3-3------------3-3-|
Malcolm
E.3-3------------3-3-|
B.3-3-1-1--1-1-1-3-3-|
G.0-0-0-0--0-0-0-0-0-|
D.0-0-2-2--2-2-2-0-0-|
A.x-x-3-3--3-3-3-x-x-|
e.3-3------------3-3-|
sink the pink

Angus
E.3-3-----63---------|
B.3-3-1-1----36-5-3--|
G.0-0-0-0-------5-3--|
D.0-0-2-2----------5-|
A.x-x-3-3------------|
e.3-3----------------|
Malcolm
E.3-3-----63---------|
B.3-3-1-1----36-5-3--|
G.0-0-0-0-------5-3--|
D.0-0-2-2----------5-|
A.x-x-3-3------------|
e.3-3----------------|
sink the pink

Angus
E.63----------6-3---------3-|
B.--36-5-3--------3-6-5-3-3-|
G.-----5-3------------5-3-0-|
D.---------5--------------0-|
A.------------------------x-|
e.------------------------3-|
Malcolm
E.63----------6-3---------3-|
B.--36-5-3--------3-6-5-3-3-|
G.-----5-3------------5-3-0-|
D.---------5--------------0-|
A.------------------------x-|
e.------------------------3-|
sink the pink

both
E.3-
B.3-
G.0-
D.0-
A.x-
e.3-
sink the pink





Comments


Popular Ac Dc tabs & chords
Given The Dog A Bone Bass Tabs
Hard As A Rock 2 Bass Tabs
Have A Drink On Me Drum Tabs
Baby Please Dont Go 1 Tabs
Big Gun 1 Tabs
Bonny 3 Tabs
C O D Tabs
Hells Bells 1 Tabs
Lets Get It Up 1 Tabs
Live Wire Tabs


Song lyrics



↑ Back to top | Tablatures and chords are parodies/interpretations of the original songs. You may use it for private study, scholarship, research or language learning purposes only
© 2014 AZChords.com Contact us | Privacy policy | DMCA | Add/correct tabs | Request tabs | Top 50 tabs