» » »

Sin City Tabs (ver.2)

Artists:  A B C D E F G H I J K L M N O P Q R S T U V W X Y Z # 

Sin City Tabs (ver.2)

Ac Dc
Rating:
0/5 (0 votes)

Hard to play? Try these video lessons and learn fast.
                Artists-AC/DC
Song-Sin City
Guitarists-Angus Young ,Malcome Young
Album-Powerage


the other tab to this song is good but i figure mine is more informative!
so please check it out


cords
  E      Bm     D      A   
|---|  |---|  |-2-|  |-0-|
|---|  |---|  |-3-|  |-2-|
|-1-|  |-4-|  |-2-|  |-2-|
|-2-|  |-4-|  |-0-|  |-2-|
|-2-|  |-2-|  |---|  |-0-|
|-0-|  |---|  |---|  |---|

intro 
|-----------------|
|-----------------|
|-----------------|
|-----------------|
|----2-5-0-2------|
|-3-5--------0----|

 intro chords
|-----2-2--|-----2-0--|-----2-0-|-----2-0-|------------|
|-----3-2--|-----3-2--|-----3-2-|-----3-2-|------------|
|-1-4-2-2--|-1-4-2-2--|-1-4-2-2-|-1-4-2-2-|------------|
|-2-4-0-2--|-2-4-0-2--|-2-4-0-2-|-2-4-0-2-|------------|
|-2-2---0--|-2-2---0--|-2-2---0-|-2-2---0-|------------|
|-0--------|-0--------|-0-------|-0-------|-0-3-0------|



|------2-0-----------|   |-2-2-2-2-2-2-2-2-2-2-2-2-2-2-2-2-|
|------3-2-----------|   |-3-3-3-3-3-3-3-3-3-3-3-3-3-3-3-3-|
|--1-4-2-2-----------|x4 |-2-2-2-2-2-2-2-2-2-2-2-2-2-2-2-2-|
|--2-4-0-2-----------|   |-0-0-0-0-0-0-0-0-0-0-0-0-0-0-0-0-|
|--2-2---0-----------|   |---------------------------------|
|0-0-------0-3-0-----|   |---------------------------------|


verse
|------2-0-----------|   
|------3-2-----------|   
|--1-4-2-2-----------|
|--2-4-0-2-----------|  x8 
|--2-2---0-----------|   
|0-0-------0-3-0-----|

pre chorus
|-0-|              |---|
|-2-|              |---|
|-2-|x16 real fast |-4-|
|-2-|              |-4-|x16
|-0-|              |-2-|
|---|              |---|

chorus
|------2-0-----------|   
|------3-2-----------|   
|--1-4-2-2-----------|
|--2-4-0-2-----------|  
|--2-2---0-----------|   
|0-0-------0-3-0-----|

and thats all there is to it you can pretty much put the rest together urself cuz all the parts are there
enjoi
            
Hard to play? Try these video lessons and learn fast. | Correct




comments powered by Disqus
↑ Back to top | Tablatures and chords are parodies/interpretations of the original songs. You may use it for private study, scholarship, research or language learning purposes only