» » »

Ac Dc, Shot Down In Flames Tabs (ver.2)

Artists:  A B C D E F G H I J K L M N O P Q R S T U V W X Y Z # 

Shot Down In Flames Tabs (ver.2)

Ac Dc Tabs
 Rating:
4/5 (4 votes)
Shot Down In Flames lessons Tabs too difficult? Try these video lessons and learn fast
                                            Shot Down In Flames
                                   AC/DC
                            Tabs By:AC/DCman..94

                           Lead Guitar:Angus Young
                         Rythym Guitar:Malcolm Young


E---------------------------------------------------------------------------|
B---------------------------------------------------------------------------|
G---------------------------------------------------------------------------|
D--5/7-7-5/7-7-5/7--------5/7-7-5/7-7-2-------------------------------------|
A--3/5-5-3/5-5-3/5--------3/5-5-3/5-5-0-------------------------------------|
E---------------------------------------------------------------------------|

E---------------------|
B---------------------|
G--9--9-7-------------|
D--7--7-5-----7--7-5--| PLAY X 6, THEN PLAY THE TAB BELOW
A-------------5--5-3--|
E---------------------|

E---------------------------------------------------------------------------|
B---------------------------------------------------------------------------|
G--9--9-7-------------------------------------------------------------------|
D--7--7-5-----5/7-7-5/7-7-3/5------------------------5/7-7------------------|
A-------------3/5-5-3/5-5-3/5  REPEAT X 2 THEN PLAY -3/5-5  X 5 ------------|
E---------------------------------------------------------------------------|

CHORUS:   (is just these chords)

 A G D C


They do that the entire song except for the solo, so thats it, hope you enjoy. If you 
                               Thank You
            
Submit corrections

comments powered by Disqus
↑ Back to top | Ac Dc Tabs for Shot Down In Flames. Lyrics for acoustic guitar and electric guitar. Tablatures and chords are parodies/interpretations of the original songs. You may use it for private study, scholarship, research or language learning purposes only