» » »

Shes My Babe Tabs (ver.1)

Artists:  A B C D E F G H I J K L M N O P Q R S T U V W X Y Z # 

Shes My Babe Tabs (ver.1)

Ac Dc
Rating:
0/5 (0 votes)

Hard to play? Try these video lessons and learn fast.
                "She's My Babe"
Recorded during Ballbreaker sessions in 1995. Written by Luther "Guitar Junior" Johnson.
This track is on the List of rare AC/DC songs.


Intro

Lead

E-----------9--9---9-8-9--I
B--------9--9--9---9-8-9--I
G--9/11-------------------I
D-------------------------I
A-------------------------I
E-------------------------I


I-------9------9---I
I-------9------9---I
I--11b-----11b-----I
I------------------I 10x
I------------------I
I------------------I

Rythm Intro/Verse

E-----------I
B-----------I
G-----------I
D--6-8-6-8--I 4x
A--4-4-4-4--I
E-----------I

E-----------I
B-----------I
G--6-8-6-8--I
D--4-4-4-4--I 2x
A-----------I
E-----------I

E-----------I
B-----------I
G-----------I
D--6-8-6-8--I 2x
A--4-4-4-4--I
E-----------I

E-----------I
B-----------I
G-----------I
D-----------I 2x
A--6-8-6-8--I
E--4-4-4-4--I


E-----------I
B-----------I
G-----------I
D-----------I 2x
A--4-6-4-6--I
E--2-2-2-2--I

E-----------I
B-----------I
G-----------I
D--6-8-6-8--I 2x
A--4-4-4-4--I
E-----------I

Lead 

Verse

I could not find out what the lead guitar in the verse plays. 
But you can with this Db blues scale to improvise.

E--------------------------------------9-12-I
B--------------------------------9-12-------I
G-----------------------9-11-12-------------I
D-----------------9-11----------------------I
A--------9-10-11----------------------------I
E--9-12-------------------------------------I
            
Hard to play? Try these video lessons and learn fast. | Correct




comments powered by Disqus
↑ Back to top | Tablatures and chords are parodies/interpretations of the original songs. You may use it for private study, scholarship, research or language learning purposes only