>
 >
Meltdown 3

Meltdown 3 Guitar Tabs

Ac Dc - Meltdown 3 chords, tabs, tablatures, lyrics

Guitar lessons | Add/correct | Request | Top 50 tabs Artists:  A B C D E F G H I J K L M N O P Q R S T U V W X Y Z 0-9

Meltdown 3 Guitar Tabs – Ac Dc

CD, Sheet music, Poster

Do you like Meltdown 3? Share with your friends now
TabsTabs v2Tabs v3Tabs v4
Song solo: Meltdown
Band: AC/DC
Tuning: Standard


The full time of this solo is about 
            1:55.
       So here it is.



Solo:
e|----------------------------------------------------------------------------------|
b|----------------------------------------------------5-5~~-3-3-3-3-3-3-3-3-3-3-3-3-|
g|-7b9~~~~-7b9~~~~~~-9--9~-9-9-9~~~~\--7-9-9-9-~~~----------4-4-4-4-4-4-4-4-4-4-4-4-|
d|-------------------------------------------------/9-------------------------------|
a|----------------------------------------------------------------------------------|
e|----------------------------------------------------------------------------------|





e|-----------------5-----------------------------------------------------------------------|
b|-8b10--8b10--------5h8--------------------------------------5-----7-----8-7-8-9-9--9-9-9-|
g|-----------------------7b9-7p5-------5-5\------------------------------------------------|
d|-------------------------------7~~~~-5-5\----5b---------5h6---6h7---7h8---7-8-9-9--9-9---|
a|-------------------------------------------7----7-7~~~~----------------------------------|
e|-----------------------------------------------------------------------------------------|





e|------------------------------10-11-12-12-12-12-12-12-12-12-12\-|
b|-10--10-10-10-10-10-10-10-10--12-13-14-14-14-14-14-14-14-14-14\-|
g|-11--11-11-11-11-11-11-11-11------------------------------------|
d|----------------------------------------------------------------|
a|----------------------------------------------------------------|
e|----------------------------------------------------------------|





e|-------12------------------------12-----------------------------|
b|-------12---------------------------15p12~-15b17~~~-15b17~~~-\--|
g|-12-13----12h13--------12h13-x\---------------------------------|
d|----------------14~~~~------------------------------------------|
a|----------------------------------------------------------------|
e|----------------------------------------------------------------|





e|----15b17~~-15~~~~-12---------12----------12----12-------------------------|
b|-17-------------------15p12~~----15-12h15----15----15p12~------------------|
g|----------------------------------------------------------14p12~-----------|
d|-----------------------------------------------------------------14-14~~~~-|
a|---------------------------------------------------------------------------|
e|---------------------------------------------------------------------------|


That`s all of it! Have Fun!

|----------------|
|  Guitar Key:   |
|                |
| ~= Vibrato     |
| h= Hammer on   |
| p= Pull off    |
| b= Bend        |
| x= Mute        |
| \= Slide down  |
|----------------|





Comments


Popular Ac Dc tabs & chords
Are You Ready 2 Bass Tabs
Evil Walks Bass Tabs
Rock N Roll Train Chords
Back In Black Live Tabs
Badlands 1 Tabs
For Those About To Rock 1 Tabs
Long Way To The Top Tabs
Meltdown 4 Tabs
Shes Got Balls 1 Tabs
Shot Down In Flames Tabs


Song lyrics



↑ Back to top | Tablatures and chords are parodies/interpretations of the original songs. You may use it for private study, scholarship, research or language learning purposes only
© 2014 AZChords.com Contact us | Privacy policy | DMCA | Add/correct tabs | Request tabs | Top 50 tabs