>
 >
Live Wire 1

Live Wire 1 Guitar Tabs

Ac Dc - Live Wire 1 chords, tabs, tablatures, lyrics

Guitar lessons | Add/correct | Request | Top 50 tabs Artists:  A B C D E F G H I J K L M N O P Q R S T U V W X Y Z 0-9

Live Wire 1 Guitar Tabs – Ac Dc

CD, Sheet music, Poster

Do you like Live Wire 1? Share with your friends now
Bass TabsBass Tabs v2Bass Tabs v3ChordsChords v2TabsTabs v2Tabs v3Ukulele
AC/DC - Live Wire 


Intro:
  
                                                                
E-----------| 
B-----------| 
G--2-----4--| Play this 
D--2--2--4--| 4 times.
A--0--2--2--| 
E-----0-----| 
                                                                             
E--------|--------|
B--------|--------| 
G-----4--|-----4--| Play this 
D--2--4--|--2--4--| 2 times.
A--2--2--|--2--2--| 
E--0-----|--0-----|
 
Verse:
   
  
E--------------|--------------|
B--------------|--------------|
G--2-----4--4--|--2-----4--4--| Play this
D--2--2--4--4--|--2--2--4--4--| 4 times.
A--0--2--2--2--|--0--2--2--2--|
E-----0--------|-----0--------|

 
Chorus:

                          
E--3--|--3--3--|-----|--------|--3--|--3--3--|
B--3--|--3--3--|-----|--------|--3--|--3--3--|
G--0--|--0--0--|--4--|--4--4--|--0--|--0--0--|
D--0--|--0--0--|--4--|--4--4--|--0--|--0--0--|
A--2--|--2--2--|--2--|--2--2--|--2--|--2--2--|
E--3--|--3--3--|-----|--------|--3--|--3--3--|

E--------------------|--------------------|
B--------------------|--------------------|
G--------------------|--------------------|
D--4-4-4-4--4-4-4-4--|--4-4-4-4--4-4-4-4--|
A--4-4-4-4--4-4-4-4--|--4-4-4-4--4-4-4-4--|
E--2-2-2-2--2-2-2-2--|--2-2-2-2--2-2-2-2--|     

Verse:
   
  
E-----|--------------|
B-----|--------------|
G--4--|--2-----4--4--| 
D--4--|--2--2--4--4--| 
A--2--|--0--2--2--2--|
E-----|-----0--------|

E--------------|--------------|
B--------------|--------------|
G--2-----4--4--|--2-----4--4--| Play this
D--2--2--4--4--|--2--2--4--4--| 3 times.
A--0--2--2--2--|--0--2--2--2--|
E-----0--------|-----0--------|

E--------------|--------|
B--------------|--------|
G--2-----4--4--|-----4--| Play this
D--2--2--4--4--|--2--4--| 4 times.
A--0--2--2--2--|--2--2--|
E-----0--------|--0-----|

E----------------------|
B----------------------|
G--4--4----4--4--4--4--| 
D--4--4----4--4--4--4--|
A--2--2----2--2--2--2--|
E----------------------|

2nd Chorus:

                             
E--3--|--3--3--|-----|--------|--3--|--3--3--|
B--3--|--3--3--|-----|--------|--3--|--3--3--|
G--0--|--0--0--|--4--|--4--4--|--0--|--0--0--|
D--0--|--0--0--|--4--|--4--4--|--0--|--0--0--|
A--2--|--2--2--|--2--|--2--2--|--2--|--2--2--|
E--3--|--3--3--|-----|--------|--3--|--3--3--|

E--------------------|--------------------|
B--------------------|--------------------|
G--------------------|--------------------|
D--4-4-4-4--4-4-4-4--|--4-4-4-4--4-4-4-4--|
A--4-4-4-4--4-4-4-4--|--4-4-4-4--4-4-4-4--|
E--2-2-2-2--2-2-2-2--|--2-2-2-2--2-2-2-2--|
    
Pre-Solo:   


E--------------------|--------------------|
B--------------------|--------------------|
G-----------------7--|-----------------7--| Play this
D--9--7--9--7--9-----|--9--7--9--7--9-----| 4 times.
A--------------------|--------------------|
E--------------------|--------------------|

Solo:


Guitar 1


E--------------------|--------------------|
B--------------------|--------------------|
G-----------------7--|-----------------7--| Play this
D--9--7--9--7--9--7--|--9--7--9--7--9--7--| 3 times.
A--9--7--9--7--9--5--|--9--7--9--7--9--5--|
E--7--5--7--5--7-----|--7--5--7--5--7-----|

E--------------------|-----------------------|
B--------------------|-----------------------|
G-----------------7--|-----------------------| 
D--9--7--9--7--9--7--|--9--7--9--7--9--7--9--| 
A--9--7--9--7--9--5--|--9--7--9--7--9--7--9--|
E--7--5--7--5--7-----|--7--5--7--5--7--5--7--|
                           
E--3--|--3--3--|-----|--------|--3--|--3--3--|
B--3--|--3--3--|-----|--------|--3--|--3--3--|
G--0--|--0--0--|--4--|--4--4--|--0--|--0--0--|
D--0--|--0--0--|--4--|--4--4--|--0--|--0--0--|
A--2--|--2--2--|--2--|--2--2--|--2--|--2--2--|
E--3--|--3--3--|-----|--------|--3--|--3--3--|

E--------------------|--------------------|
B--------------------|--------------------|
G--------------------|--------------------|
D--4-4-4-4--4-4-4-4--|--4-4-4-4--4-4-4-4--|
A--4-4-4-4--4-4-4-4--|--4-4-4-4--4-4-4-4--|
E--2-2-2-2--2-2-2-2--|--2-2-2-2--2-2-2-2--|

E--------------|--------------|
B--------------|--------------|
G--2-----4--4--|--2-----4--4--| Play this
D--2--2--4--4--|--2--2--4--4--| 2 times.
A--0--2--2--2--|--0--2--2--2--|
E-----0--------|-----0--------|


Guitar 2


E----7---7~-|-7-5------------------|-----------12~-|-12h14p12------|
B-7~---7----|-----7-5--------------|-7~-/10-12-----|---------15p12-|
G-----------|---------7-4---4-7-7~-|---------------|---------------|
D-----------|-------------7--------|---------------|---------------|
A-----------|----------------------|---------------|---------------|
E-----------|----------------------|---------------|---------------|

E----------------------|----------|----14-12h13h14~-|-14-13-12-14~-|
B----12-15~--12-14-15~-|----15-12-|-15--------------|--------------|
G-14-------------------|-14-------|-----------------|--------------|
D----------------------|----------|-----------------|--------------|
A----------------------|----------|-----------------|--------------|
E----------------------|----------|-----------------|--------------|

E----------19-|-19p17---------------------|-22b-22b-20-22b-20------|
B-19-18-17----|-------19p17---------------|------------------22-19-|
G-------------|-------------19-16-19-19~\-|------------------------|
D-------------|---------------------------|------------------------|
A-------------|---------------------------|------------------------|
E-------------|---------------------------|------------------------|

E-------------------|-------------|
B-22-19-22-19-17-19-|-19-17----19-|
G-------------------|-------19----|
D-------------------|-------------|
A-------------------|-------------|
E-------------------|-------------|

E--------------------|--------------------|
B--------------------|--------------------|
G-----------------7--|-----------------7--| Play this
D--9--7--9--7--9-----|--9--7--9--7--9-----| 5 times.
A--------------------|--------------------|
E--------------------|--------------------|

E--------------|------      ---|
B--------------|-12- Let Ring -|
G--------------|----  Through -|
D-9- Let Ring -|---- The Next -|
A--------------|----   Verse  -|
E--------------|------      ---|

Verse:


E--------------|--------------|
B--------------|--------------|
G--2-----4--4--|--2-----4--4--| Play this
D--2--2--4--4--|--2--2--4--4--| 2 times.
A--0--2--2--2--|--0--2--2--2--|
E-----0--------|-----0--------|

E--------------|--------|
B--------------|--------|
G--2-----4--4--|-----4--| Play this
D--2--2--4--4--|--2--4--| 4 times.
A--0--2--2--2--|--2--2--|
E-----0--------|--0-----|

E----------------------|
B----------------------|
G--4--4----4--4--4--4--| 
D--4--4----4--4--4--4--|
A--2--2----2--2--2--2--|
E----------------------|

Chorus & Outro:

   
Guitar 1

                          
E--3--|--3--3--|-----|--------|--3--|--3--3--|
B--3--|--3--3--|-----|--------|--3--|--3--3--|
G--0--|--0--0--|--4--|--4--4--|--0--|--0--0--|
D--0--|--0--0--|--4--|--4--4--|--0--|--0--0--|
A--2--|--2--2--|--2--|--2--2--|--2--|--2--2--|
E--3--|--3--3--|-----|--------|--3--|--3--3--|

E--------------------|--------------------|
B--------------------|--------------------|
G--------------------|--------------------|
D--4-4-4-4--4-4-4-4--|--4-4-4-4--4-4-4-4--|
A--4-4-4-4--4-4-4-4--|--4-4-4-4--4-4-4-4--|
E--2-2-2-2--2-2-2-2--|--2-2-2-2--2-2-2-2--|
                         
E--3--|--3--3--|-----|--------|
B--3--|--3--3--|-----|--------|
G--0--|--0--0--|--4--|--4--4--| Play this
D--0--|--0--0--|--4--|--4--4--| 6 times.
A--2--|--2--2--|--2--|--2--2--|
E--3--|--3--3--|-----|--------|

E--------------------|--------------------|
B--------------------|--------------------|
G--------------------|--4-4-4-4--4-4-4-4--| Play this
D--5-5-5-5--5-5-5-5--|--4-4-4-4--4-4-4-4--| 4 times.
A--5-5-5-5--5-5-5-5--|--2-2-2-2--2-2-2-2--|
E--3-5-3-3--3-3-3-3--|--------------------|


Guitar 2


E-------------|------------|------------|
B-12-12~-12\0-|-12-12~-12\-|-12-12~-12\-|
G-------------|------------|------------|
D-------------|------------|------------|
A-------------|------------|------------|
E-------------|------------|------------|

E-----------------|---------------------|
B-12-10-----------|-12-14-15~-15\14\12~-|
G-------11-9------|---------------------|
D------------12~\-|---------------------|
A-----------------|---------------------|
E-----------------|---------------------|

E----------------------|-19----17-19-19-|
B-15h17-19--19-19--19~-|----19----------|
G----------------------|----------------|
D----------------------|----------------|
A----------------------|----------------|
E----------------------|----------------|

E-19-19~-19----19~-|-19----19~-19-17--------17--------|
B-----------19-----|----19-----------19-19~----19-19~-|
G------------------|----------------------------------|
D------------------|----------------------------------|
A------------------|----------------------------------|
E------------------|----------------------------------|

E-19h22p19--------------------------------------------| 
B----------22-19-19~-19-17-17~--------------17-19-----|
G------------------------------19-16--16-19-------19~-|
D-----------------------------------------------------|
A-----------------------------------------------------|
E-----------------------------------------------------| 

E----19-------19-|-19-------22-19-|-22-17-19-22-17-19-|
B-19----19-22----|----19-22-------|-------------------|
G----------------|----------------|-------------------|
D----------------|----------------|-------------------|
A----------------|----------------|-------------------|
E----------------|----------------|-------------------|

E-22-17-19-22-17-19--22-17-19-22-17-19--22-17-19--|
B-------------------------------------------------|
G-------------------------------------------------|
D-------------------------------------------------|
A-------------------------------------------------|
E-------------------------------------------------|

E-22-17-19--22-17-19-22-17-19--22-19-17----|----22b-22b-|
B---------------------------------------19-|-19---------|
G------------------------------------------|------------|
D------------------------------------------|------------|
A------------------------------------------|------------|
E------------------------------------------|------------|

E-22p21h22-17p15-------------------------|------------|
B----------------17p15-------------------|------------|
G----------------------17p16p14-17--14~--|-17-17~-14~-|
D----------------------------------------|------------|
A----------------------------------------|------------|
E----------------------------------------|------------|

E----------------------|
B----------------------|
G-17-17-14~--17-17-14~-| Play this
D----------------------| 8 times.
A----------------------| 
E----------------------| 

E----------------------------------|
B----17-15-----17-15-----17-15-----|
G-16-------16~-------16~-------16~-|
D----------------------------------|
A- Play This While The Song Fades -|
E--------------- Out --------------|





Comments


Popular Ac Dc tabs & chords
Rock N Roll Damnation Bass Tabs
Smash N Grab Bass Tabs
High Voltage Chords
Back In Black Drum Tabs
Dirty Deeds Done Dirt Cheap 1 Tabs
Dt Tabs
Fly On The Wall Tabs
Hell Aint A Bad Place To Be Tabs
Moneytalks 3 Tabs
Moneytalks Ukulele


Song lyrics



↑ Back to top | Tablatures and chords are parodies/interpretations of the original songs. You may use it for private study, scholarship, research or language learning purposes only
© 2014 AZChords.com Contact us | Privacy policy | DMCA | Add/correct tabs | Request tabs | Top 50 tabs