» » »

Ac Dc, Kissin Dynamite Tabs (ver.1)

Artists:  A B C D E F G H I J K L M N O P Q R S T U V W X Y Z # 

Kissin Dynamite Tabs (ver.1)

Ac Dc Tabs
 Rating:
4/5 (4 votes)
Kissin Dynamite lessons Tabs too difficult? Try these video lessons and learn fast
1
                Kissin' Dynamite by AC/DC
                            x3
e-----------------------------|------------------------------|
B-----------------------------|------------------------------|
G---9----7-7------9----7-7/9--|---9----7-7------9----7-7-12--|
D-9-9--9-7-7-5--9-9--9-7-7/9--|-9-9--9-7-7-5--9-9--9-7-7-12--|
A-9-7--9-5-5-5--9-7--9-5-5/7--|-9-7--9-5-5-5--9-7--9-5-5-10--|
E-7----7-----3--7----7--------|-7----7-----3--7----7---------|
 
0.35                  x3 0.47
e-----------------------|-------------|
B-----------------------|-3-----3--2--|
G---------2-------------|-2--2--2--2--|
D-0h2p0---2--0h2p0------|-0--2--0--2--|
A-------2-0--------2-2--|----0-----0--|
E--------------------0--|-------------|

1.06
e------------------------------------------------------------|
B------------------------------------------------------------|
G-444444444444----------------444444444444444444444444--4-4--|
D-444444444444--222222222222--444444444444444444444444--4-4--|
A-222222222222--222222222222--222222222222222222222222--2-2--|
E---------------000000000000---------------------------------|
   strum 12x     strum 12x           strum 24x

2.30 SOLO
e----------------------------------------------12b-----------------|
B---------12-12b--------------12b-b-b-b------------15-12-----------|
G-----------------9-12-9----9-----------12---------------14-12-----|
D------------------------12----------------14~-----------------12--|
A-7~~~-7-----------------------------------------------------------|
E------------------------------------------------------------------|

e-----------------12-12-12-12----------------------------------------------|
B-------15-12-----12-12-12-12-12-15-12-------------------------------------|
G-14-12--------12----------------------14-12-------------12-14-12-14-------|
D--------------------------------------------14-12-14-12-------------14-12-|
A--------------------------------------------------------------------------|
E--------------------------------------------------------------------------|

e--------------------------------------------------------------------------|
B-----------------3^5^3^5^3^5^3^5^3^0----------7^5/3^0---3-3-3-------------|
G----------7---9----------------------2/4-2-0----------4-------------------|
D------------9-------------------------------------------------------------|
A---5---7-------------------------------------------------------0-2-2-0-2--|
E-0---0--------------------------------------------------------------------|

e-5-5----7b--14b--15-17-17--15-17-17-17--15-17-17-17-----15-17-17-15--|
B-----8-----------17-17-17--17-17-17-17--17-17-17-17--17----------17--|
G---------------------------------------------------------------------|
D---------------------------------------------------------------------|
A---------------------------------------------------------------------|
E---------------------------------------------------------------------|

e-17-17----17-17--------------------------------------------------------|
B-------17-17-17--------------------------------------------------------|
G-----------------12-14-12----12----------------------------------------|
D--------------------------14----14-12----12-14--12-14-12---------------|
A--------------------------------------14-----------------12-14-12-14~--|
E-----------------------------------------------------------------------|

3.07
e--------|
B--------|
G-4---4--|
D-4---4--|
A-2---2--|
E--------|

3.14
e------------------------------|repeat until
B------------------------------|3.38
G-7h9p7-----7h9p7------7b------|
D-------9-9-------9-9-----9-9--|
A------------------------------|
E------------------------------|

3.38 OUTRO
e---------------------------|
B---------------------------|
G-444444444444444444444444--|
D-444444444444444444444444--|
A-222222222222222222222222--|
E---------------------------|
       strum 24x


Any corrections please comment
Thanks
            
Submit corrections

comments powered by Disqus
↑ Back to top | Ac Dc Tabs for Kissin Dynamite. Lyrics for acoustic guitar and electric guitar. 1 Tablatures and chords are parodies/interpretations of the original songs. You may use it for private study, scholarship, research or language learning purposes only