>
 >
House Of Jazz

House Of Jazz Guitar Tabs

Ac Dc - House Of Jazz chords, tabs, tablatures, lyrics

Guitar lessons | Add/correct | Request | Top 50 tabs Artists:  A B C D E F G H I J K L M N O P Q R S T U V W X Y Z 0-9

House Of Jazz Guitar Tabs – Ac Dc

CD, Sheet music, Poster

Do you like House Of Jazz? Share with your friends now
TabsTabs v2

 


Intro:
E|--------------------|-----------------------------|-----------------------------|
B|--------------------|-----------------------------|-----------------------------|
G|--------------------|-----------------------------|-----------------------------|
D|--------------5--7--|--8p7------------------5--7--|--8p7------------------5--7--|
A|--------------5--7--|--7-7-7p5--------------5--7--|--7-7-7p5--7-----7-----5--7--|
E|--------------------|-----------0--0--0--0--------|-----------0--0--0--0--------|

                                              band:
|-----------------------------|---------------------------|
|-----------------------------|---------------------------|
|-----------9-----------------|----------------------2----|
|--8p7------9-----9-----5--7--|--8p7------------5----2----|
|--7-7-7p5--------------5--7--|--7-7-7p5--------5----0----|
|-----------0--0--0--0--------|-----------0--0--3---------|

|---------------------------|---------------------------|---------------------------|
|---------------------------|---------------------------|---------------------------|
|--3p2-0--------------0--2--|--3p2-0--------------0--2--|--3p2-0--------------0--2--|
|--2-2---2-----2------0--2--|--2-2---2-----2------0--2--|--2-2---2-----2------0--2--|
|--------------2------------|--------------2------------|--------------2------------|
|-----------0--0------------|-----------0--0------------|-----------0--0------------|

                                      humdinger                       bell ringer
|---------------------------|-----------------------------|-----------------------------|
|---------------------------|-----------------------------|-----------------------------|
|--3p2-0--------------0--2--|--3p2-0----------------0--2--|--3p2-0----------------0--2--|
|--2-2---2-----2------0--2--|--2-2---2--------------0--2--|--2-2---2--------------0--2--|
|--------------2------------|-----------------------------|-----------------------------|
|-----------0--0------------|-----------0--0--0--0--------|-----------0--0--0--0--------|

          got a nasty...   to   slow you    down                     mud slinger
|-----------------------------|---------------------------|-----------------------------|
|-----------------------------|---------------------------|-----------------------------|
|--3p2-0----------------0--2--|--3p2-0--------------0--2--|--3p2-0----------------0--2--|
|--2-2---2--------------0--2--|--2-2---2--2--2------0--2--|--2-2---2--------------0--2--|
|-----------------------------|-----------2--2------------|-----------------------------|
|-----------0--0--0--0--------|-----------0--0------------|-----------0--0--0--0--------|

          gold digger                    who point...   and   do you     down
|-----------------------------|-----------------------------|---------------------------|
|-----------------------------|-----------------------------|---------------------------|
|--3p2-0----------------0--2--|--3p2-0----------------0--2--|--3p2-0--------------0--2--|
|--2-2---2--------------0--2--|--2-2---2--------------0--2--|--2-2---2--2--2------0--2--|
|-----------------------------|-----------------------------|-----------2--2------------|
|-----------0--0--0--0--------|-----------0--0--0--0--------|-----------0--0------------|

 kickin' and fighting...                                     lightnin' blindin'...
|-----------------------------|----------------------------|-----------------------------|
|-----------------------------|----------------------------|-----------------------------|
|--3p2-0----------------0--2--|--3p2-0---------------0--2--|--3p2-0----------------0--2--|
|--2-2---2--------------0--2--|--2-2---2--2--2----2--0--2--|--2-2---2--------------0--2--|
|-----------------------------|-----------2--2----2--------|-----------------------------|
|-----------0--0--0--0--------|-----------0--0----0--------|-----------0--0--0--0--------|

               are you comin' in           are you comin' in            I said
|--------------------------|------------------------|--------------------------|
|--------------------------|------------------------|--------------------------|
|--3p2-0-------------------|--0----0----0--0--0--0--|--2--2--2--2--2--2--2--2--|
|--2-2---2--2--2--------2--|--0----0----0--0--0--0--|--2--2--2--2--2--2--2--2--|
|-----------2--2--------2--|------------------------|--0--0--0--0--0--0--0--0--|
|-----------0--0--------0--|--3----3----3--3--3--3--|--------------------------|

Chorus:
 come into the house of     come into the house of
|--------------------------|--------------------------|
|--------------------------|--------------------------|
|--------------------------|--2--2--2--2--2--2--2--2--|
|--2--2--2--2--2--2--2--2--|--2--2--2--2--2--2--2--2--|
|--2--2--2--2--2--2--2--2--|--0--0--0--0--0--0--0--0--|
|--0--0--0--0--0--0--0--0--|--------------------------|

 come into the house of      jazz
|--------------------------|--------------------------|
|--------------------------|--------------------------|
|--------------------------|--------------------------|
|--5--5--5--5--5--5--5--5--|--5--5--5--5--5--5--5--5--|
|--5--5--5--5--5--5--5--5--|--5--5--5--5--5--5--5--5--|
|--3--3--3--3--3--3--3--3--|--2--2--2--2--2--2--2--2--|

 come into the house of     come into the house of
|--------------------------|--------------------------|
|--------------------------|--------------------------|
|--------------------------|--2--2--2--2--2--2--2--2--|
|--2--2--2--2--2--2--2--2--|--2--2--2--2--2--2--2--2--|
|--2--2--2--2--2--2--2--2--|--0--0--0--0--0--0--0--0--|
|--0--0--0--0--0--0--0--0--|--------------------------|

 come into the house of      jazz                       2nd verse:
|--------------------------|--------------------------|----------------------------|
|--------------------------|--------------------------|----------------------------|
|--------------------------|--4--4--4--4--4--4--0--2--|--3p2-0---------------0--2--|
|--5--5--5--5--5--5--5--5--|--4--4--4--4--4--4--0--2--|--2-2---2--2--2----2--0--2--|
|--5--5--5--5--5--5--5--5--|--2--2--2--2--2--2--------|-----------2--2----2--------|
|--3--3--3--3--3--3--3--3--|--------------------------|-----------0--0----0--------|


After 2nd chorus:
 Jazz       are you comin' in  solo:
|--------------------------|--------------------|--------------------|
|--------------------------|-------3------------|--3-----------------|
|--4--4--4--4--4--4--4--4--|--1----2------------|--2----2------------|
|--4--4--4--4--4--4--4--4--|--2----0------------|--0----2------------|
|--2--2--2--2--2--2--2--2--|--2-----------------|-------0------------|
|--------------------------|--0-----------------|--------------------|

|--------------------|----------------------|----------------------------|
|-------3------------|--3-------------------|----------------------------|
|--1----2------------|--2----2----0----2----|--3p2-0---------------0--2--|
|--2----0------------|--0----2----0----2----|--2-2---2--2--2----2--0--2--|
|--2-----------------|-------0---------0----|-----------2--2----2--------|
|--0-----------------|------------3---------|-----------0--0----0--------|

|----------------------------|----------------------------|----------------------------|
|----------------------------|----------------------------|----------------------------|
|--3p2-0---------------0--2--|--3p2-0---------------0--2--|--3p2-0---------------------|
|--2-2---2--2--2----2--0--2--|--2-2---2--2--2----2--0--2--|--2-2---2--2--2----2--2--2--|
|-----------2--2----2--------|-----------2--2----2--------|-----------2--2----2--2--2--|
|-----------0--0----0--------|-----------0--0----0--------|-----------0--0----0--0--0--|

|------------------------|--------------------------|----------------------------|
|------------------------|--------------------------|----------------------------|
|--0----0----0--0--0--0--|--2--2--2--2--2--2--0--2--|--3p2-0---------------0--2--|
|--0----0----0--0--0--0--|--2--2--2--2--2--2--0--2--|--2-2---2--2--2----2--0--2--|
|------------------------|--0--0--0--0--0--0--------|-----------2--2----2--------|
|--3----3----3--3--3--3--|--------------------------|-----------0--0----0--------|

                                                                        I said
|----------------------------|----------------------|--------------------------|
|----------------------------|----------------------|--------------------------|
|--3p2-0---------------------|--0----2----0----2----|--2--2--2--2--2--2--2--2--|
|--2-2---2--2--2----2--2--2--|--0----2----0----2----|--2--2--2--2--2--2--2--2--|
|-----------2--2----2--2--2--|-------0---------0----|--0--0--0--0--0--0--0--0--|
|-----------0--0----0--0--0--|--3---------3---------|--------------------------|

 come into the house of... (chorus)
|--------------------------|
|--------------------------|
|--------------------------|
|--2--2--2--2--2--2--2--2--|
|--2--2--2--2--2--2--2--2--|
|--0--0--0--0--0--0--0--0--|





Comments


Popular Ac Dc tabs & chords
Dt Bass Tabs
Have A Drink Bass Tabs
Hell Aint A Bad Place To Be Chords
Big Balls Drum Tabs
Back Seat Confidential Tabs
Crabsody In Blue 1 Tabs
Dt 1 Tabs
If You Dare Tabs
Let Me Put My Love Into You Tabs
Once More Tabs


Song lyrics



↑ Back to top | Tablatures and chords are parodies/interpretations of the original songs. You may use it for private study, scholarship, research or language learning purposes only
© 2014 AZChords.com Contact us | Privacy policy | DMCA | Add/correct tabs | Request tabs | Top 50 tabs