>
 >
High Voltage 1

High Voltage 1 Guitar Tabs

Ac Dc - High Voltage 1 chords, tabs, tablatures, lyrics

Guitar lessons | Add/correct | Request | Top 50 tabs Artists:  A B C D E F G H I J K L M N O P Q R S T U V W X Y Z 0-9

High Voltage 1 Guitar Tabs – Ac Dc

CD, Sheet music, Poster

Do you like High Voltage 1? Share with your friends now
Bass TabsChordsTabsTabs v2Tabs v3
AC/DC High Voltage

intro(Gtr.1[Angus],2[Malcolm])
E------|-------------|-----------------|          |--------|
B--9-9-|-9-----------|-----------------|          |--------|
G--9-9-|-9---------7-|-----2--2--------|          |-2-2----|
D--9-9-|-9---------7-|-----2--2--------|          |-2-2----|
A--7-7-|-7---------5-|--4--0--0--------|          |-0-0----|
E--0-0-|-0-----------|-----------------|x4 then...|--------|

Riff1 (Gtr.1[Angus],2[Malcolm])
E----------------------------------------------------------|
B----------------------------------------------------------|
G---2-2-2-2-2---2-2-2-2-2---2-2-2-2-2---2-2-2-2-2----------|
D---2-2-4-5-4---2-2-4-5-4---2-2-4-5-4---2-2-4-5-4----------|
A---0-0-0-0-0---0-0-0-0-0---0-0-0-0-0---0-0-0-0-0----------|x4
E----------------------------------------------------------|


     ________________________________________________________________
     {  Gtr.2[Malcolm]
     {  E----------------------------------------------------------|
     {  B----------------------------------------------------------|
     {  G---2-2-2-2-2---2-2-2-2-2---2-2-2-2-2---2-2-2-2-2----------|
     {  D---2-2-4-5-4---2-2-4-5-4---2-2-4-5-4---2-2-4-5-4----------|
     {  A---0-0-0-0-0---0-0-0-0-0---0-0-0-0-0---0-0-0-0-0----------|x4
     {  E----------------------------------------------------------|
Verse{
     {    Gtr.1[Angus]
     {  E--------5--5--------5--5-------5--5-------5--5----|
     {  B--------------------------------------------------|
     {  G---5--6--------5--6-------5--6-------5--6---------|
     {  D--------------------------------------------------| x4
     {  A--------------------------------------------------|
        E--------------------------------------------------|
     _______________________________________________________________


 Bridge
	     Gtr.2[Malcolm}
E-----------------|-----------------------|----------------|-----------------|
B-----------------|-----------------------|----------------|-----------------|
G--9-----9-----9--|--9-----9-----9------7-|-7-----7-----7--|-7-----7-----7---|
D--9-----9-----9--|--9-----9-----9------7-|-7-----7-----7--|-7-----7-----7---|
A--7-----7-----7--|--7-----7-----7------5-|-5-5-5-5-5-5-5--|-5-5-5-5-5-5-5-4-|
E--0-0-0-0-0-0-0--|--0-0-0-0-0-0-0--0-0---|----------------|-----------------|
		  Gtr.1[Angus]
E---------12--12--|---------12--12--------|--------10--10--|--------10--10--|
B-----------------|-----------------------|----------------|----------------|
G--12--13---------|--12--13-------------/-|--10--11--------|--10-11---------|
D-----------------|-----------------------|----------------|----------------|
A-----------------|-----------------------|----------------|----------------|
E-----------------|-----------------------|----------------|----------------|


Chorus(Gtr1&2)
       E------------------|-----------------------------------------|
       B------------------|-----------------------------------------|
       G--2------------5--|----7----2---2-2-2-2-2--2-2-2-2-2--------|
       D--2------------5--|----7----2---2-2-4-5-4--2-2-4-5-4--------|
       A--0------------3--|----5----0---0-0-0-0-0--0-0-0-0-0--------|
       E------------------|-----------------------------------------| x2
        "high"     "voltage   rockn roll"

    then...
       E--------------------|
       B--------------------|
       G--2-----------5-----|
       D--2-----------5-----|
       A--0-----------3-----|x2
       E--------------------|
"Give me high       voltage"               "Give me ,Give me"

       E------------------|----------------------------------------------|
       B------------------|----------------------------------------------|
       G--2------------5--|----7----2---2-2-2-2-2--2-2-2-2-2--2-2-2-2-2--|
       D--2------------5--|----7----2---2-2-4-5-4--2-2-4-5-4--2-2-4-5-4--|
       A--0------------3--|----5----0---0-0-0-0-0--0-0-0-0-0--0-0-0-0-0--|
       E------------------|----------------------------------------------|
        "high"     "voltage   rockn roll"


Angus Solo
   E               D5            A          E                       E
    b~~~~~         b   r             ~~      b ~~~~~    b ~~~   b ~~~~~~
e|--------------------------------------------------12------------------|
b|---------12--------------12--------------------------12-15-17---15-17-|
g|14-16-------12-14-16--14----12--------12-14-16------------------------|
D|-------------------------------14-14----------------------------------|
A|----------------------------------------------------------------------|
E|----------------------------------------------------------------------|
               A           E                        D5
            b ~~~~                          b ~~~~~
e|------------------12-15--12----12-15-------------12-15--12----12---------|
b|-15--12---------------------15-------15-15-17--------------12----15-12---|
g|--------14-16----------------------------------------------------------14|
D|-------------------------------------------------------------------------|
A|-------------------------------------------------------------------------|
E|-------------------------------------------------------------------------|
          A                 E                     D5                   E
          b ~~~   b         r                                           ~~~
e|---------------------------------------------12--------------------------|
b|12----------------------------------------------15----------------------9|
g|---14-14-16---14-16--14-16-14-12----12-14-16-------14-16-14-12-14-16-12-9|
D|---------------------------------14-------------------------------------9|
A|------------------------------------------------------------------------7|
E|-------------------------------------------------------------------------|

Angus Tricks(Live at Donington 1991) Incomplete! Sorry
 E----------------------------------|----------------------------------|
 B----------------------------------|----------------------------------|
 G------4------4-2------------------|------4------4-2--------5--5//----|
 D------4------4-2------2~-2p0------|------4------4-2------------------|
 A--2--(2)--2-(2)0------------------|--2--(2)--2-(2)0------------------|
 E----------------------------------|----------------------------------|

 E-----------------------------------|-----------------------------------|
 B-----------------------------------|-----------------------------------|
 G-\-----4------4-2------------------|------4------4-2-------------------|
 D-\-----4------4-2------2-----------|------4------4-2---2---2-2-2-------|
 A-\-2--(2)--2-(2)0----2p------------|--2--(2)--2-(2)0-------------------|
 E-----------------------------------|-----------------------------------|

 E----------------------------------|--------------------------------------|
 B---------------------3~~\-0-------|---------------------/3~~-3~~---------|
 G------4------4-2------------------|------4------4-2--------------5~~-5~~-|
 D------4------4-2------------------|------4------4-2----------------------|
 A--2--(2)--2-(2)0------------------|--2--(2)--2-(2)0----------------------|
 E----------------------------------|--------------------------------------|

 E----------------------------------|---------------------|
 B---------------------3-5-3p0------|---------------------|
 G------4------4-2------------------|------4------4-2-----|
 D------4------4-2------------------|------4------4-2-----|
 A--2--(2)--2-(2)0------------------|--2--(2)--2-(2)------|
 E----------------------------------|---------------------|
then...
 E-----------------------|
 B-----------------------|
 G-----------------------|
 D------4------4---------|
 A--2-------2------------| x8
 E-----------------------|
  Malcolm
 E------------------------|
 B------------------------|
 G---4----4---------------|
 D---4----4---------------| Malcolm  plays this during the Angus part
 A-2-2--2-2---------------|
 E------------------------|

 Angus Part
 E----------------------- ----------------------|
 B----------------------------------------------|
 G---------12~~---------------------------------|
 D-*14~-12-----12~---------    *you can play 15-|
 A-------------14~------------------------------|
 E-------------13~------------------------------|


 E------------------------------------------------------|
 B------------------------------------------------------|
 G--12-9-11-11-9--11p9----------------------------------|
 D----------------------\-------------------------------|
 A------------------------------------------------------|
 E------------------------------------------------------|

 E-------------------------------------|
 B-------------------------------------|
 G-------------12~~\----9~~~\----------|
 D-------12-14-------------------------|
 A----14-------------------------------|
 E-------------------------------------|

 E------------------------------------|
 B--------12~~\-----------------------|
 G---9h11-----------------------------|  x2
 D------------------------------------|
 A------------------------------------|
 E------------------------------------|

 E------------------------------------------------------|
 B--------12~~---------12~~------12~~-------------------|
 G---9h11---------9h11-----------11~~-------------------|
 D------------------------------------------------------|
 A------------------------------------------------------|
 E------------------------------------------------------|


 E----------------|
 B----------12~~--|
 G----------11~~--| then Angus plays this long and faster
 D----------------|
 A----------------|
 E----------------|

Then there are very strange things that Angus do on his guitar.
I didn't tabbed it yet.


 Intro
 Riff1
 Verse
 Bridge
 Chorus
 Verse
 Bridge
 Chorus
 Angus Solo
 Angus Tricks
 Then play this as you want





Comments


Popular Ac Dc tabs & chords
Hells Bells 3 Bass Tabs
Ride On Bass Tabs
Rocking All The Way 3 Bass Tabs
Inject The Venom Chords
Bad Boy Boogie Tabs
Damned Tabs
Dog Eat Dog 1 Tabs
Furor 2 Tabs
Rock N Roll Aint Noise Pollution 3 Tabs
Sink The Pink 1 Tabs


Song lyrics



↑ Back to top | Tablatures and chords are parodies/interpretations of the original songs. You may use it for private study, scholarship, research or language learning purposes only
© 2014 AZChords.com Contact us | Privacy policy | DMCA | Add/correct tabs | Request tabs | Top 50 tabs