» » »

Ac Dc, Hells Bells Tabs (ver.6)

Artists:  A B C D E F G H I J K L M N O P Q R S T U V W X Y Z # 

Hells Bells Tabs (ver.6)

Ac Dc Tabs
Rating:
0/5 (0 votes)
Hells Bells lessons Tabs too difficult? Try these video lessons and learn fast
                (Intro)
Hells Bells

e|-------------------------|------------------------|-----------------------|
B|-------------------------|------------------------|-----------------------|
G|-----9-----7----------5--|----------7-------------|----9-----7----------5-|
D|--------7-------7--------|----5-------------------|-------7-------7-------|
A|--0----------------0-----|-------0----------0--0--|------------------0----|
E|-------------------------|------------------------|-----------------------|

e| -----------------------|-------------------------|-----------------------|
B| -----------------------|-------------------------|-----------------------|
G| ----------7---------2--|-----9-----7----------5--|----------7------------|
D| ----5---------5--5--2--|--------7-------7--------|----5------------------|
A| -------0------3--2--0--|-------------------0-----|-------0----------0--0-|
E| -----------------------|-------------------------|-----------------------|
 
e|------------------------|---------------------|-------------------------|
B|------------------------|---------------------|-------------------------|
G|----9-----7----------5--|----------7--------2-|-----9-----7----------5--|
D|-------7-------7--------|----5--------5--5--2-|--------7-------7--------|
A|------------------0-----|-------0-----3--2--0-|-------------------0-----|
E|------------------------|---------------------|-------------------------|

e|------------------------|------------------------|---------------------|
B|------------------------|------------------------|---------------------|
G|----------7-------------|----9-----7----------5--|----------7--------2-|
D|----5-------------------|-------7-------7--------|----5--------5--5--2-|
A|-------0----------0--0--|------------------0-----|-------0-----3--2--0-|
E|------------------------|------------------------|---------------------|

e|-------------------------|------------------------|-----------------------|
B|-------------------------|------------------------|-----------------------|
G|-----9-----7----------5--|----------7-------------|----9-----7----------5-|
D|--------7-------7--------|----5-------------------|-------7-------7-------|
A|-------------------0-----|-------0----------0--0--|------------------0----|
E|-------------------------|------------------------|-----------------------|


e|---------------------|-------------------------|------------------------|
B|---------------------|-------------------------|------------------------|
G|----------7--------2-|-----9-----7----------5--|----------7-------------|
D|----5--------5--5--2-|--------7-------7--------|----5-------------------|
A|-------0-----3--2--0-|--0----------------0-----|-------0----------0--0--|
E|---------------------|-------------------------|------------------------|
 
e|------------------------|---------------------|------------------------|
B|------------------------|---------------------|------------------------|
G|----9-----7----------5--|----------7--------2-|----9-----7----------5--|
D|-------7-------7--------|----5--------5--5--2-|-------7-------7--------|
A|------------------0-----|-------0-----3--2--0-|------------------0-----|
E|------------------------|---------------------|------------------------|

e|------------------------|---------------------3--|----3--2---------------|
B|------------------------|---------------------3--|----3--3---------------|
G|----------7-------------|----9-----7----------0--|----0--2---------------|
D|----5-------------------|-------7-------7-----0--|----0--0----5--5--2----|
A|-------0----------0--0--|------------------0--x--|----x--0----3--2--0----|
E|------------------------|---------------------3--|----3------------------|

e|------------------------|---------------------|-------------------------|
B|------------------------|---------------------|-------------------------|
G|----9--7--9----7--5--7--|---------------------|-----9--7--9----7--5--7--|
D|----7--7--7----5--5--7--|-----------5----5----|-----7--7--7----5--5--7--|
A|------------------------|--------0--3----2----|--0----------------------|
E|------------------------|---------------------|-------------------------|

e|---------------------|
B|---------------------|
G|---------------------|
D|-----------5----5----|
A|--------0--3----2----|
E|---------------------|
            

comments powered by Disqus
↑ Back to top | Ac Dc Tabs for Hells Bells. Lyrics for acoustic guitar and electric guitar. Tablatures and chords are parodies/interpretations of the original songs. You may use it for private study, scholarship, research or language learning purposes only