>
 >
Hells Bells

Hells Bells Guitar Tabs

Ac Dc - Hells Bells chords, tabs, tablatures, lyrics

Guitar lessons | Add/correct | Request | Top 50 tabs Artists:  A B C D E F G H I J K L M N O P Q R S T U V W X Y Z 0-9

Hells Bells Guitar Tabs – Ac Dc

CD, Sheet music, Poster

Do you like Hells Bells? Share with your friends now
Bass TabsBass Tabs v2Bass Tabs v3Drum TabsTabsTabs v2Tabs v3Tabs v4Tabs v5Tabs v6
Tuning: Normal (E, A, D, G, B, e)
Notes: OK... I've tried to complete the tab for this great song...I'm about
99.99993170943% sure it's right. Both Lead and Rhythm Guitars are here but I've
called them G1 & G2 respectively. All Bar Chords can be played as normal chords
ALSO anywhere where there's a 5/2 power chord you can change it to a 4/2 power
chord instead cause it makes only a slight differance. Go Heavy or Go Home!!!

The Intro begins w/ 4 Bell Tolls Then:
Riff 1A
  G1
e|------------------|------------------|----------------|---------------------|
B|------------------|------------------|----------------|---------------------|
G|----9---7-------5-|-------7----------|--9---7-------5-|-------7----------2--|
D|------7----7------|-5-------7--------|----7----7------|-5-----7----5--5--2--|
A|-0------------0---|----0-------0--0--|------------0---|----0-------3--2--0--|
E|------------------|------------------|----------------|---------------------|
 |G2                |                  |                |                     |
 |------------------|------------------|----------------|---------------------|
 |------------------|------------------|----------------|---------------------|
 |------------------|------------------|----------------|------------------2--|
 |------------------|------------------|----------------|------------5--5--2--|
 |------------------|------------------|----------------|------------3--2--0--|
 |------------------|------------------|----------------|---------------------|

Riff 1B (x3)
 G1
|------------------|------------------|----------------|---------------------|
|------------------|------------------|----------------|---------------------|
|----9---7-------5-|-------7----------|--9---7-------5-|-------7----------2--|
|------7----7------|-5-------7--------|----7----7------|-5-----7----5--5--2--|
|-0------------0---|----0-------0--0--|------------0---|----0-------3--2--0--|
|------------------|------------------|----------------|---------------------|
|G2                |                  |                |                     |
|------------------|------------------|----------------|---------------------|
|------------------|------------------|----------------|---------------------|
|------------------|---------------2--|----------------|------------------2--|
|------------------|---------------0--|----------------|------------5--5--0--|
|------------------|---------------0--|----------------|------------3--2--0--|
|------------------|------------------|----------------|---------------------|

Main Intro Riff #1
 G1 & G2
|------------------|------------------|----------------|---------------------|
|------------------|------------------|----------------|---------------------|
|----9---7-------5-|-------7----------|--9---7-------5-|-------7----------2--|
|------7----7------|-5-------7--------|----7----7------|-5-----7----5--5--2--|
|-0------------0---|----0-------0--0--|------------0---|----0-------3--2--0--|
|------------------|------------------|----------------|---------------------|

Main Intro Riff #2
 G1
|------------------|------------------|--------------3-|-3--3--2------------|
|------------------|------------------|--------------0-|-0--0--3------------|
|----9---7-------5-|-------7----------|--9---7-------0-|-0--0--2---------2--|
|------7----7------|-5-------7--------|----7----7----0-|-0--0--0---5--5--2--|
|-0------------0---|----0-------0--0--|------------0-2-|-2--2--0---3--2--0--|
|------------------|------------------|--------------3-|-3--3---------------|
|G2                |                  |                |                    |
|------------------|------------------|--------------3-|-3--3--5------------|
|------------------|------------------|--------------3-|-3--3--7------------|
|----9---7-------5-|-------7----------|--9---7-------4-|-4--4--7---------2--|
|------7----7------|-5-------7--------|----7----7----5-|-5--5--7---5--5--2--|
|-0------------0---|----0-------0--0--|------------0-5-|-5--5--5---3--2--0--|
|------------------|------------------|--------------3-|-3--3--5------------|

Transition Riff
 G1
|------------------------|-------------------------|------------------------|
|------------------------|-------------------------|------------------------|
|----9--7--9----7--5--7~~|~~~~~~~~~~~--------------|----9--7--9----7--5--7~~|
|----7--7--7----5--5--7~~|~~~~~~~~~~~----5----5----|----7--7--7----5--5--7~~|
|------------------------|-----------0---3----2----|--0---------------------|
|------------------------|-------------------------|------------------------|
|G2 (G2 Just plays the Verse Riff)                 |                        |
|------------------------|-------------------------|------------------------|
|------------------------|-------------------------|------------------------|
|----9--7--9----7--5--7--|-------------------------|----9--7--9----7--5--7--|
|----7--7--7----5--5--7--|---------------5----5----|----7--7--7----5--5--7--|
|------------------------|-----------0---3----2----|--0---------------------|
|------------------------|-------------------------|------------------------|

-------------------------|
-------------------------|
~~~~~~~~~~~--------------|
~~~~~~~~~~~----5----5----|
-----------0---3----2---0|
-------------------------|
                         |
-------------------------|
-------------------------|
-------------------------|
---------------5----5----|
-----------0---3----2---0|
-------------------------|

Verses
 G1 & G2 (Verse Riff x2)

Pre-Chorus Riff
I won't take no prisoners...
|-------------------------|------------------3----|              
|-----3--3--3----3--3--3--|----3--2----------3----| <-----------|
|-----2--0--2----2--0--2--|----2--2-----5----4----|  Do these 2 |
|--0----------------------|----------2--5----5----|  bars twice |
|-------------------------|----------0--3----5----| <-----------|
|-------------------------|------------------3----|

Then:
                          1......................|2......................|
|------------------------|-----------------------|-------------3----3----|
|------------------------|-----------------------|-------------3----3----|
|------------------------|-------------7---------|-------------4----4----|
|---9--7--9----9--7--9---|----9--7--9--7----7----|----9--9--9--5----5----|
|---7--7--7----7--7--7---|----7--7--7--5----7----|----7--7--7--5----5----|
|------------------------|------------------5----|-------------3----3----|

Main Intro Riff #1

Main Intro Riff #2

Transition Riff (A bit more 'open')

Verse Riff (x2)

Pre-Chorus Riff

Main Intro Riff #1

Main Intro Riff #2

G2 Holds the last chord forever while G1 does this little fill:
|--
|--
|--  SORRI!!!!!
|--  IF U'VE GOT IT THIS PART THEN POST IT....
|--  AGAIN... SORRI!!!!
|--

NOW FINALLY...
Solo #1 (these solo tabs I got off the net... They were real 'fixxer-upperz')
|----------------------------------------------------------------------------|
|--------------------------------------------------8---------8-8-8-8-8-8--8-8|
|-------------------------------------------7b9--------7b9---9-9-9-9-9-9--9-9|
|--5-7-7~~~~~4-5-5~~~~~~0--4-5-7-7--5-7--------------------------------------|
|----------------------------------------------------------------------------|
|----------------------------------------------------------------------------|
                                                             |---HB---------|

|---------------------------------------------------------------------------|
|------------5-------8~~~~~~7---7~~~~~~~8--8~~~~~~10--10~~~~-13-13-12-13-13-|
|-r7--5------5----9--9~~~~~~7---7~~~~~~~9--9~~~~~~11--11~~~~-14-14-13-14-14-|
|-------7-7------/----------------------------------------------------------|
|---------------------------------------------------------------------------|
|---------------------------------------------------------------------------|

|----------------------------------------12---12-----10v----10v--------------|
|12-13-13-12-13-12-13-13-13-13-13-13-13--13---13--13-15v-13-15v--------------|
|13-14-14-13-14-13-14-14-14-14-14-14-14--------------------------------------|
|----------------------------------------------------------------------------|
|----------------------------------------------------------------------------|
|----------------------------------------------------------------------------|

|---10----------------------10---10---------10----10-------------------------|
|13v15---12-13-r-12---10--/-10---10---13-10----10-------13--------15-17b19---|
|-----------------------\-/-----------------------------14----\14------------|
|-------------------------------------------------------------\--------------|
|----------------------------------------------------------------------------|
|----------------------------------------------------------------------------|

|17--------17-----------17-----17----------------------------------------|
|---17b19-----17b19--17b19--17b19--r17---15--17--15----15------------20--|
|---------------------------------------------------16-----19b21--19b21--|
|------------------------------------------------------------------------|
|------------------------------------------------------------------------|
|------------------------------------------------------------------------|

|--------------17------------------------------------------17--20--17--------|
|-----------------20-17-----------------------20b22-20b22-------------20b22--|
|19b21-19b21------------20-19-17----19-17------------------------------------|
|--------------------------------19-------19---------------------------------|
|----------------------------------------------------------------------------|
|----------------------------------------------------------------------------|

|-17-17-------20b22--20b21-----17--------------------------------------------|
|-------20-17---------------------20-17--------------------------------------|
|---------------------------------------19-21-19-17-----17~~~~~~~------------|
|---------------------------------------------------19------------19---------|
|-------------------------------------------------------------------\--------|
|--------------------------------------------------------------------\-------|

Main Intro Riff #1 (x2) You could just let Rhythm take it but it's heavier
(aka.better) if both play.

Solo #2
|---------15----------------------------------15-----------------------------|
|-15b17------17--15----13------15-----15b17-------17---15------13----15---15b|
|----------------------------------------------------------------------------|
|----------------------------------------------------------------------------|
|----------------------------------------------------------------------------|
|----------------------------------------------------------------------------|

|---15--------------------------------15-------------------------------------|
|17----17-15---13-------15-----15b17-----17-15------13-----------------------|
|----------------------------------------------------------------------------|
|----------------------------------------------------------------------------|
|----------------------------------------------------------------------------|
|-------------------------------------------------------17\----17\----17\----|

|----------------------------------------------5-------5---\----8---------8--|
|-------------------------------------------8v10----8v10---\\-----10-8-10--10|
|--2--0--2~~~~~~2~~~~~~~~~5-7~~~~~~~--5---------------------\----------------|
|--2-----------------------------------\-------------------------------------|
|--0-------------------------------------------------------------------------|
|----------------------------------------------------------------------------|

|--------5------5---------------17-------------17----------------------------|
|\----8v10---8v10---\----20b22-----20-17-20b22----27--20b22~~~~~20b22---20b22|
|-\--------------------------------------------------------------------------|
|----------------------------------------------------------------------------|
|----------------------------------------------------------------------------|
|----------------------------------------------------------------------------|

|---------17-----------------------------------------------------------------|
|-20b22-----20-27-------------------20----20------20------20------20------20r|
|-----------------19b21-19-17-19b21----19b21---19b21---19b21---19b21---19b21r|
|----------------------------------------------------------------------------|
|----------------------------------------------------------------------------|
|----------------------------------------------------------------------------|

|----------------------------------------------|
|20-----------19--17---------------------------|
|19-----17----19--17----------------2-------2--|
|----------19--------------x--------2-------2--|
|---------------------------\-------0-------0--|
|----------------------------\----------3------|
                       BOTH GUITARS|.........|





Comments


Popular Ac Dc tabs & chords
Back In Black 7 Bass Tabs
Given The Dog A Bone Bass Tabs
Lets Make It Bass Tabs
She Likes Rock N Roll Bass Tabs
Down On The Borderline Tabs
Fly On The Wall 1 Tabs
Got You By The Balls Tabs
Hail Caeser Tabs
Hell Aint A Bad Place To Be Tabs
Highway To Hell Intro Tabs


Song lyrics



↑ Back to top | Tablatures and chords are parodies/interpretations of the original songs. You may use it for private study, scholarship, research or language learning purposes only
© 2014 AZChords.com Contact us | Privacy policy | DMCA | Add/correct tabs | Request tabs | Top 50 tabs