>
 >
Hard As A Rock 1

Hard As A Rock 1 Guitar Tabs

Ac Dc - Hard As A Rock 1 chords, tabs, tablatures, lyrics

Guitar lessons | Add/correct | Request | Top 50 tabs Artists:  A B C D E F G H I J K L M N O P Q R S T U V W X Y Z 0-9

Hard As A Rock 1 Guitar Tabs – Ac Dc

CD, Sheet music, Poster

Do you like Hard As A Rock 1? Share with your friends now
Bass TabsBass Tabs v2ChordsTabsTabs v2Tabs v3Tabs v4Tabs v5
AC/DC - Hard as a rock 
By DJ MacLeod


Guitar 1

e|-2-4-||-5--4-2-0-2-4-2 2--4-0 0--4-2 2--2-4-||5--4-2-0-2-4-2 2--4-0-0--4-2 2|
b|-0-0-||-0--0-0-0-0-0-0-0--0-0-0--0-0-0--0-0-||0--0-0-0-0-0-0-0--0-0-0--0-0-0|
g|-----||*-----------------------------------*||------------------------------|
D|-----||*-----------------------------------*||------------------------------|
A|-----||-------------------------------------||------------------------------|
E|-----||-------------------------------------||------------------------------|
  

Guitar 1 extra verse bit
e|5-4-2--4-5-4-2-4-5-4-2|
B|0-0-0--0-0-0-0-0-0-0-0|
G|----------------------|
D|----------------------|
A|----------------------|
E|----------------------|




Guitar 2 over guitar 1                         Pattern 1

e||---------------------------------------||---------------|
b||---------------------------------------||---------------|
g||*------4------1-----4-4----1-1----4-4-*||-1-4--4--4--4--| x4
D||*------4------2-----4-4----2-2----4-4-*||-2-4--4--4--4--|
A||-------2------2-----2-2----2-2----2-2--||-2-2--2--2--2--|
E||--------------0------------0-0---------||-0-------------|

 Verse :  Guitar 1                                                      
   Pattern 2b                                                            
   
 e|---------------|---------------|---------------|---------------|-|    
 b|---------------|---------------|---------------|---------------|-|    
 g|-1-4--4--4--4--|-1-4--4--4--4--|-1-4--4--4--4--|-1-4--4--4--4--|2| 2x 
 D|-2-4--4--4--4--|-2-4--4--4--4--|-2-4--4--4--4--|-2-4--4--4--4--|2|    
 A|-2-2--2--2--2--|-2-2--2--2--2--|-2-2--2--2--2--|-2-2--2--2--2--|0|    
 E|-0-------------|-0-------------|-0-------------|-0-------------|-|    
                                                                         
 Gtr.2 plays sPatter 2a over guitar 1                                             
                                                  
 e|----------------------------------------------|---------|             
 b|----------------------------------------------|---------|             
 g|---4---------------4---------------4--------4-|2--1-4-4-|             
 D|-6-4--4--4--4----6-4--4--4--4----6-4--4--4--4-|2--2-4-4-|             
 A|-2-2--2--2--2----2-2--2--2--2----2-2--2--2--2-|-----2-2-|             
 E|----------------------------------------------|---------|             
                                                                         


e|----------------------------------------------------------------------------|
b|----------------------------------------------------------------------------|
g|-1-4-4--2---1-4-4-1-1-1-1--1-2--x--2-1-4-4-2-1-1-2-1--1-2-1--x--2--1-4-4-2-1|
D|-2-4-4--2---2-4-4-2-2-2-2--2-2--x--2-2-4-4---2-2-2-2--2-2-2--x--2--2-4-4---2|
A|-2-2-2--0---2-2-2-2-2-2-2--2-2--x--0-2-2-2---2-2-2-2--2-2-2--x--0--2-2-2---2|
E|-0----------0-----0-0-0-0--0-0-------0-------0-0-0-0--0-0-0-----------------|


e|----------------------------------|
b|----------------------------------|
g|-1-2-1--1-2-x-x-2--1-4-4---1--2-1-|
D|-2-2-2--2-2-x-x-2--2-4-4---2--2-2-|
A|-2-2-2--2-2-x-x-0--2-2-2---2--0-2-|
E|-0-0-0--0-0--------0-----0-0----0-|

Chorus:

e|----------------------------------------------------------------------------|
b|----------------------------------------------------------------------------|
g|-4-----1-------4-4---2-1-1------4-4-----4--1-4-4---2--1---2--4-4-4--2--1--1-|
D|-4-----2-------4-4---2-2-2------4-4-----4--2-4-4---2--2---2--4-4-4--2--2--2-|
A|-2-----2-----0-2-2---2-2-2----0-2-2-----2--2-2-2---2--2---0--2-2-2--2--2--2-|
E|-------0-----------------------------------0-------0--0----------------0--0-|
    
e|----------------------------------------------------------------------------|
b|----------------------------------------------------------------------------|
g|--4-4-4-2-2-1--1-----4-4--1----4-4--4-2-2-1-1----4-4--4--2-2-1-1----4-4--4--|
D|--4-4-4-2-2-2--2-----4-4--2----4-4--4-2-2-2-2----4-4--4--2-2-2-2----4-4--4--|
A|--2-2-2-2-2-2--2---0-2-2--2--0-2-2--2-2-2-2-2--0-2-2--2--2-2-2-2--0-2-2--2--|
E|0-----------0--0----------0---------------0-0----------------0-0------------|
 
SOLO
           
e|----------------------------------7-x-7-7-10-10-7---------|
B|--------------------------------------------------7-10-10-|
G|-x--7------------------7--9-9-9-9-------------------------|
D|------9-9-9--9--9--9-9------------------------------------|
A|----------------------------------------------------------|
E|----------------------------------------------------------|


e|----7--7--------------------------------------------------------------------|
b|10-----7--9---9---7---------------9-9-9--9--------10-10--10---15-----15-----|
g|----------9-7-9---7------------7--9-9-9--9---7--9-11--------------16----16--|
D|----------------9----x-x--9-9-----------------------------------------------|
A|----------------------------------------------------------------------------|
E|----------------------------------------------------------------------------|

e|-----------------------------------------12-----14--------------------------|
b|17-15-17----17-17-15-17-----12-12-12-15-----17-----15-----------------------|
g|---------16--------------14---------------------------16-13-16-16-16-16-16-/|
D|----------------------------------------------------------------------------|
A|----------------------------------------------------------------------------|
E|----------------------------------------------------------------------------|
                                Outro (3.Verse) over main lick
                              
e|---------------------------|  e||--------------------------||
b|17--15---------------------|  b||--------------------------||
g|--\----16-16-16-------16\--|  g||*-4--1--4-4----1--1--4--4*||X5
D|---------------------------|  D||*-4--2--4-4----2--2--4--4*||
A|---------------------------|  A||--2--2--2-2----2--2--2--2-||
E|---------------------------|  E||-----0---------0--0-------||  

e|----------------------------------------------------------------------------|
b|----------------------------------------------------------------------------|
g|4--4-2-1-1-2-4--4-4-4-4-4-2-1-1-1-1-1-1-2-1-1-1-1-1-1-1-2-1-1-1-1-1-1-1-2-1-|
D|4--4-2-2-2-2-4--4-4-4-4-4-2-2-2-2-2-2-2-2-2-2-2-2-2-2-2-2-2-2-2-2-2-2-2-2-2-|
A|2--2---2-2-2-2--2-2-2-2-2---2-2-2-2-2-2-2-2-2-2-2-2-2-2-2-2-2-2-2-2-2-2-2-2-|
E|-------0-0-0----------------0-0-0-0-0-0-0-0-0-0-0-0-0-0-0-0-0-0-0-0-0-0-0-0-|
              
e|------------------------------|
b|------------------------------|
g|1-1-1-1-1-1-2--4--1--4--4-4-4-|
D|2-2-2-2-2-2-2--4--2--4--4-4-4-|
A|2-2-2-2-2-2-2--2--2--2--2-2-2-|
E|0-0-0-0-0-0-0-----0-----------|

There thats my tab - took me ages but it sounds good! leave comments at





Comments


Popular Ac Dc tabs & chords
Have A Drink On Me Bass Tabs
Nervous Shakedown Bass Tabs
Rock N Roll Dream Bass Tabs
Are You Ready 3 Tabs
Lets Make It 2 Tabs
Rock N Roll Aint Noise Pollution 3 Tabs
Shake A Leg 1 Tabs
Shake Your Foundations Intro Tabs
Shoot To Thrill 3 Tabs
Squealer Tabs


Song lyrics



↑ Back to top | Tablatures and chords are parodies/interpretations of the original songs. You may use it for private study, scholarship, research or language learning purposes only
© 2014 AZChords.com Contact us | Privacy policy | DMCA | Add/correct tabs | Request tabs | Top 50 tabs