» » »

Ac Dc, Hard As A Rock Tabs (ver.1)

Artists:  A B C D E F G H I J K L M N O P Q R S T U V W X Y Z # 

Hard As A Rock Tabs (ver.1)

Ac Dc Tabs
 Rating:
4/5 (4 votes)
Hard As A Rock lessons Tabs too difficult? Try these video lessons and learn fast
1
                tuning:standard
album:ballbreaker
year:1995

intro(played by gtr one)
E|-2-4-5---4-2-0-2-4-2----4-0----4-2-|
B|-0-0-0---0-0-0-0-0-0----0-0----0-0-|
G|-----------------------------------|
D|-----------------------------------|
A|-----------------------------------|
E|-----------------------------------|
play this four times

after gtr one plays the intro riff twice
gtr two plays this
E|-------------------------|
B|-------------------------|
G|-------------------------|
D|-4-------4-------------4-|
A|-2---2---2-------2-----2-|
E|-----0-----------0-------|
play this twice

verse

for the first half of the verse 
both guitars play this
E|------------------------------------------|
B|------------------------------------------|
G|------------------------------------------|
D|----------------------------------------4-|
A|---2-2-2--2---2-2-2--2---2-2-2--2---2---2-|
E|-0----------0----------0----------0---0---|
play this three times

for the second half of the verse

gtr one
E|-5-4-2---2-4-5-4-2-4-5-4-2-|
B|-0-0-0---0-0-0-0-0-0-0-0-0-|
G|---------------------------|
D|---------------------------|
A|---------------------------|
E|---------------------------|
play this four times

gtr two
E|-----------------|
B|-----------------|
G|-----4-----4---4-|
D|-2---4---2-4-2-4-|
A|-2---2---2-2-2-2-|
E|-0-------0---0---|
play this four times

then there is a very small pre chorus that both guitars play
prechorus (both guitars)
E|-------|
B|-------|
G|---4---|
D|-2-4-2-|
A|-2-2-2-|
E|-0---0-|

chorus (same as the intro riff)

gtr one
E|-2-4-5--4-2-0-2-4-2------4-0------4-2-|
B|-0-0-0--0-0-0-0-0-0------0-0------0-0-|
G|--------------------------------------|
D|--------------------------------------|
A|--------------------------------------|
E|--------------------------------------|
play this twice

gtr two
E|--------------------------|
B|--------------------------|
G|-4-------4--------------4-|
D|-4---2---4--------2-----4-|
A|-2---2---2--------2-----2-|
E|-----0------------0-------|
play this twice

pre-verse (both guitars)
E|---------------------|
B|---------------------|
G|-4------4---4------4-|
D|-4-2--2-4---4-2--2-4-|
A|-2-2--2-2---2-2--2-2-|
E|---0--0-------0--0---|

then you repeat the verse and chorus and pre verse again.

guitar solo.

gtr two plays the chorus riff over the solo.

solo.
E|---------------------------12-12-|
B|-5-------------------12-12-------|
G|---4----------7-9b9--------------|
D|------------9--------------------|
A|---------------------------------|
E|---------------------------------|

E|---------------------------------------------------|
B|-12===12===10-10--------------------------12h13p12-|
G|-----------------9-7-9-4-6b--4-4==7--9h10----------|
D|---------------------------------------------------|
A|---------------------------------------------------|
E|---------------------------------------------------|

E|----------12------14p12-----14-|
B|-12h13p12----12---------12-----|
G|-------------------------------|
D|-------------------------------|
A|-------------------------------|
E|-------------------------------|

E|----------------12h14-14-12---------|
B|-12-12-12-12-15---------------14-12-|
G|------------------------------------|
D|------------------------------------|
A|------------------------------------|
E|------------------------------------|

E|-------14-14----------|
B|-12-12-------12h13p12-|
G|----------------------|
D|----------------------|
A|----------------------|
E|----------------------|
then gtr two just plays the chorus riff for the outro.

outro solo (played by gtr one)
E|------------------------------14-14-12----------|
B|---------------------------------------12-12-12-|
G|------------10-10-10-12-12----------------------|
D|-7-9========------------------------------------|
A|------------------------------------------------|
E|------------------------------------------------|

E|--------------------------------------|
B|-10-11-12-12--------12-12-12-12-12-12-|
G|--------------------------------------|
D|--------------------------------------|
A|--------------------------------------|
E|--------------------------------------|

E|-------------14-12------14-12----|
B|----------12-------12---------12-|
G|---7-9-11------------------------|
D|-9-------------------------------|
A|---------------------------------|
E|---------------------------------|

E|-17-15-14----12-12-12-12-12-12========-----------|
B|----------12--------------------------12=========|
G|-------------------------------------------------|
D|-------------------------------------------------|
A|-------------------------------------------------|
E|-------------------------------------------------|

that should do it.

Key to tab:
h=hammeron
p=pull off
==let ring
b=bend string up (release just before next note is played)

there you are
            
Submit corrections

comments powered by Disqus
↑ Back to top | Ac Dc Tabs for Hard As A Rock. Lyrics for acoustic guitar and electric guitar. 1 Tablatures and chords are parodies/interpretations of the original songs. You may use it for private study, scholarship, research or language learning purposes only