>
 >
Gone Shootin

Gone Shootin Bass Tabs

Ac Dc - Gone Shootin chords, tabs, tablatures, lyrics

Guitar lessons | Add/correct | Request | Top 50 tabs Artists:  A B C D E F G H I J K L M N O P Q R S T U V W X Y Z 0-9

Gone Shootin Bass Tabs – Ac Dc

CD, Sheet music, Poster

Do you like Gone Shootin? Share with your friends now
Bass TabsTabsTabs v2Tabs v3
Bassist: Cliff Williams

Intro

  F#
G|-----------------|-----------------|-----------------|-----------------|
D|-----------------|-----------------|-----------------|-----------------|
A|-----------------|-----------------|-----------------|-----------------|
E|-2-2-2-2-2-2-2-2-|-2-2-2-2-2-2-2-2-|-2-2-2-2-2-2-2-2-|-2-2-2-2-2-2-2-2-|

  F#                                                            A# E F F#
G|-----------------|-----------------|-----------------|-----------------|
D|-----------------|-----------------|-----------------|-----------------|
A|-----------------|-----------------|-----------------|---------1-------|
E|-2-2-2-2-2-2-2-2-|-2-2-2-2-2-2-2-2-|-2-2-2-2-2-2-2-2-|-2-2-2-2---0-1-2-|

  F#
G|-----------------|-----------------|-----------------|-----------------|
D|-----------------|-----------------|-----------------|-----------------|
A|-----------------|-----------------|-----------------|-----------------|
E|-2-2-2-2-2-2-2-2-|-2-2-2-2-2-2-2-2-|-2-2-2-2-2-2-2-2-|-2-2-2-2-2-2-2-2-|

  F#                                                           E G E F F#
G|-----------------|-----------------|-----------------|-----------------|
D|-----------------|-----------------|-----------------|-----------------|
A|-----------------|-----------------|-----------------|-----------------|
E|-2-2-2-2-2-2-2-2-|-2-2-2-2-2-2-2-2-|-2-2-2-2-2-2-2-2-|-2-2-2-0-3-0-1-2-|

  F#
G|-----------------|-----------------|-----------------|-----------------|
D|-----------------|-----------------|-----------------|-----------------|
A|-----------------|-----------------|-----------------|-----------------|
E|-2-2-2-2-2-2-2-2-|-2-2-2-2-2-2-2-2-|-2-2-2-2-2-2-2-2-|-2-2-2-2-2-2-2-2-|

  F#                                                               E F F#
G|-----------------|-----------------|-----------------|-----------------|
D|-----------------|-----------------|-----------------|-----------------|
A|-----------------|-----------------|-----------------|-----------------|
E|-2-2-2-2-2-2-2-2-|-2-2-2-2-2-2-2-2-|-2-2-2-2-2-2-2-2-|-2-2-2-2-2-0-1-2-|

Verse 1

  F#
G|-----------------|-----------------|-----------------|-----------------|
D|-----------------|-----------------|-----------------|-----------------|
A|-----------------|-----------------|-----------------|-----------------|
E|-2-2-2-2-2-2-2-2-|-2-2-2-2-2-2-2-2-|-2-2-2-2-2-2-2-2-|-2-2-2-2-2-2-2-2-|

  F#                                                               E F F#
G|-----------------|-----------------|-----------------|-----------------|
D|-----------------|-----------------|-----------------|-----------------|
A|-----------------|-----------------|-----------------|-----------------|
E|-2-2-2-2-2-2-2-2-|-2-2-2-2-2-2-2-2-|-2-2-2-2-2-2-2-2-|-2-2-2-2-2-0-1-2-|

  F#
G|-----------------|-----------------|-----------------|-----------------|
D|-----------------|-----------------|-----------------|-----------------|
A|-----------------|-----------------|-----------------|-----------------|
E|-2-2-2-2-2-2-2-2-|-2-2-2-2-2-2-2-2-|-2-2-2-2-2-2-2-2-|-2-2-2-2-2-2-2-2-|

  F#                                                               B C C#
G|-----------------|-----------------|-----------------|-----------------|
D|-----------------|-----------------|-----------------|-----------------|
A|-----------------|-----------------|-----------------|-----------2-3-4-|
E|-2-2-2-2-2-2-2-2-|-2-2-2-2-2-2-2-2-|-2-2-2-2-2-2-2-2-|-2-2-2-2-2-------|

Pre-Chorus

   C#                                  B                 A                                 
G|-----------------|-----------------|-----------------|-----------------|
D|-----------------|-----------------|-----------------|-----------------|
A|-4-4-4-4-4-4-4-4-|-4-4-4-4-4-4-4---|-2---2-2-2-2-2-2-|-----------------|
E|-----------------|-----------------|-----------------|-5---------------|

Chorus

   F#                            E F#  F#                        
G|-----------------|-----------------|-----------------|-----------------|
D|-----------------|-------------2-4-|-----------------|-----------------|
A|-----------------|-----------------|-----------------|---------3-2-0---|
E|-2-2-2-2-2-2-2-2-|-2-2-2-2-2-2-----|-2-2-2-2-2-2-2-2-|-2-2-2-2-------2-|

  F#                                                               E F F#
G|-----------------|-----------------|-----------------|-----------------|
D|-----------------|-----------------|-----------------|-----------------|
A|-----------------|-----------------|-----------------|-----------------|
E|-2-2-2-2-2-2-2-2-|-2-2-2-2-2-2-2-2-|-2-2-2-2-2-2-2-2-|-2-2-2-2-2-0-1-2-|

Verse 2

  F#
G|-----------------|-----------------|-----------------|-----------------|
D|-----------------|-----------------|-----------------|-----------------|
A|-----------------|-----------------|-----------------|-----------------|
E|-2-2-2-2-2-2-2-2-|-2-2-2-2-2-2-2-2-|-2-2-2-2-2-2-2-2-|-2-2-2-2-2-2-2-2-|

  F#                                                               E F F#
G|-----------------|-----------------|-----------------|-----------------|
D|-----------------|-----------------|-----------------|-----------------|
A|-----------------|-----------------|-----------------|-----------------|
E|-2-2-2-2-2-2-2-2-|-2-2-2-2-2-2-2-2-|-2-2-2-2-2-2-2-2-|-2-2-2-2-2-0-1-2-|

  F#
G|-----------------|-----------------|-----------------|-----------------|
D|-----------------|-----------------|-----------------|-----------------|
A|-----------------|-----------------|-----------------|-----------------|
E|-2-2-2-2-2-2-2-2-|-2-2-2-2-2-2-2-2-|-2-2-2-2-2-2-2-2-|-2-2-2-2-2-2-2-2-|

  F#                                                            E D# D C#
G|-----------------|-----------------|-----------------|-----------------|
D|-----------------|-----------------|-----------------|-----------------|
A|-----------------|-----------------|-----------------|---------7-6-5-4-|
E|-2-2-2-2-2-2-2-2-|-2-2-2-2-2-2-2-2-|-2-2-2-2-2-2-2-2-|-2-2-2-2---------|


Pre-Chorus

   C#                                  B                 A                                 
G|-----------------|-----------------|-----------------|-----------------|
D|-----------------|-----------------|-----------------|-----------------|
A|-4-4-4-4-4-4-4-4-|-4-4-4-4-4-4-4---|-2---2-2-2-2-2-2-|-----------------|
E|-----------------|-----------------|-----------------|-5-----5-----5---|

Chorus
   
   E F F#                                                          D E F
G|-----------------|-----------------|-----------------|-----------------|
D|-----------------|-----------------|-----------------|-----------0-2-3-|
A|-----------------|-----------------|-----------------|-----------------|
E|-0-1-2-2-2-2-2-2-|-2-2-2-2-2-2-2-2-|-2-2-2-2-2-2-2-2-|-2-2-2-2-2-------|

Solo

   F#  E D F#F#A B   C B A F#          E F#  E D F#F#A   A#B E F F# 
G|-----------------|-----------------|-----------------|-----------------|
D|-4-4-2-0-4-------|-----------------|-2-4-4-2-0-4-----|-----------------|
A|-------------0-2-|-3-2-0-----------|---------------0-|-1-2-------------|
E|-----------2-----|-------2---------|-------------2---|-----0-1-2-------|

   F#    E F#        B   C F#            E F#  A B F#    A A#B E F F#E F
G|-----------------|-----------------|---------2-4-----|-----------------|
D|-4-4-4-2-4-4-4---|-----------------|---2-4-4-----4-4-|-----------------|
A|-----------------|-2-2-3-----------|-----------------|-0-1-2-----------|
E|-----------------|-------2---------|-----------------|-------0-1-2-0-1-|

   E F#    E F#  A   B     F#          E F#    E F#      B       F#
G|-----------------|-----------------|-----------------|-----------------|
D|-----------------|-----------------|-----------------|-----------------|
A|---------------0-|-2-2-2-----------|-----------------|-2-2-2-2---------|
E|-2-2-2-0-2-2-2---|-------2-2-2-2-2-|-0-2-2-2-0-2-2-2-|---------2-2-2-2-|

  F#                 B       F#        E F#  E F#        A B E F F#
G|-----------------|-----------------|-----------------|-----------------|
D|-----------------|---------4-------|-2-4-4-2-4-4-4-4-|-----------------|  
A|-----------------|-2-2-2-2---------|-----------------|-0-2-------------|
E|-2-2-2-2-2-2-2-2-|-----------------|-----------------|-----0-1-2-------|

Bridge

   E F#    E  F#     E F#      E F F#                              A A#B
G|-----------------|-----------------|-----------------|-----------------|
D|-----------------|-----------------|-----------------|-----------------|
A|-----------------|-----------------|-----------------|-----------0-1-2-|
E|-0-2-2-2-0-2-2-2-|-0-2-2-2-2-0-1-2-|-2-2-2-2-2-2-2-2-|-2-2-2-2-2-------|

  F#                                                           B   C
G|-----------------|-----------------|-----------------|-----------------|
D|-----------------|-----------------|-----------------|-----------------|
A|-----------------|-----------------|-----------------|-------2-2-3-3-3-|
E|-2-2-2-2-2-2-2-2-|-2-2-2-2-2-2-2-2-|-2-2-2-2-2-2-2-2-|-2-2-2-----------|

   C#                                  B                 A                                 
G|-----------------|-----------------|-----------------|-----------------|
D|-----------------|-----------------|-----------------|-----------------|
A|-4-4-4-4-4-4-4-4-|-4-4-4-4-4-4-4---|-2---2-2-2-2-2-2-|-------------0/12|
E|-----------------|-----------------|-----------------|-5---5---5-5-----|

Outro

  F#
G|-----------------|-----------------|-----------------|-----------------|
D|-----------------|-----------------|-----------------|-----------------|
A|-----------------|-----------------|-----------------|-----------------|
E|-2-2-2-2-2-2-2-2-|-2-2-2-2-2-2-2-2-|-2-2-2-2-2-2-2-2-|-2-2-2-2-2-2-2-2-|

   F#                            E F#  F#                        
G|-----------------|-----------------|-----------------|-----------------|
D|-----------------|-------------2-4-|-----------------|-----------------|
A|-----------------|-----------------|-----------------|-----------------|
E|-2-2-2-2-2-2-2-2-|-2-2-2-2-2-2-----|-2-2-2-2-2-2-2-2-|-2-2-2-2-2-2-2-2-|

   F#
G|-----------------|-----------------|-----------------|-----------------|
D|-----------------|-----------------|-----------------|-----------------|
A|-----------------|-----------------|-----------------|-----------------|
E|-2-2-2-2-2-2-2-2-|-2-2-2-2-2-2-2-2-|-2-2-2-2-2-2-2-2-|-2-2-2-2-2-2-2-2-|

   E F F#                                                        B
G|-----------------|-----------------|-----------------|-----------------|
D|-----------------|-----------------|-----------------|-----------------|
A|-----------------|-----------------|-----------------|---------2-------|
E|-2-2-2-2-2-2-2-2-|-2-2-2-2-2-2-2-2-|-2-2-2-2-x-2-----|-2---------------|

   B       F#            
G|-----------------|-----------------|
D|-----------------|-----------------|
A|-2---------------|-----------------|
E|---------2-------|-2---------------|


Encore (4:10)

  F#   E F#    E F#      E F#    E F#      E F#    E F#      E F#    E F#
G|-----------------|-----------------|-----------------|-----------------|
D|-----------------|-----------------|-----------------|-----------------|
A|-----------------|-----------------|-----------------|-----------------|
E|-2-2-0-2-2-2-0-2-|-2-2-0-2-2-2-0-2-|-2-2-0-2-2-2-0-2-|-2-2-0-2-2-2-0-2-|

  F#                                                             B C B C
G|-----------------|-----------------|-----------------|-----------------|
D|-4-4-4-4-4-4-4-4-|-4-4-4-4-4-4-4-4-|-4-4-4-4-4-4-4-4-|-4-4-4-----------|
A|-----------------|-----------------|-----------------|---------2-3-2-3-|
E|-----------------|-----------------|-----------------|-----------------|

   E F#    E F#      E F#    E F#      E F#    E F#      E F#    E F#
G|-----------------|-----------------|-----------------|-----------------|
D|-----------------|-----------------|-----------------|-----------------|
A|-----------------|-----------------|-----------------|-----------------|
E|-0-2-2-2-0-2-2-2-|-0-2-2-2-0-2-2-2-|-0-2-2-2-0-2-2-2-|-0-2-2-2-0-2-2-2-|

  F# F#      E F#    E F#      E F#    A B   F#  E F#    E F#      E F#
G|-----------------|-----------------|-2-4-------------|-----------------|
D|-----------------|-----------------|-----------------|-----------------|
A|-----------------|-----------------|-----------------|-----------------|
E|-0-2---2-2-0-2---|-0-2---2-2-0-2---|-------2-2-0-2---|-0-2---2-2-0-2---|

   E F#      E F#    E F#      E F#    A B   F#  E F#             F#C#F#
G|-----------------|-----------------|-2-4-------------|-----------------|
D|-----------------|-----------------|-----------------|-----------------|
A|-----------------|-----------------|-----------------|-----------------|
E|-0-2---2-2-0-2---|-0-2---2-2-0-2---|-------2-2-0-2---|-2-2-2-2--2/9\2--|

  F#        (fade out)
G|-----------------|-----------------|-----------------|-----------------|
D|-----------------|-----------------|-----------------|-----------------|
A|-----------------|-----------------|-----------------|-----------------|
E|-2-2-2-2-2-2-2-2-|-2-2-2-2-2-2-2-2-|-2-2-2-2-2-2-2-2-|-2-2-2-2-2-2-2-2-|





Comments


Popular Ac Dc tabs & chords
All Screwed Up Bass Tabs
Satellite Blues 2 Bass Tabs
Cover You In Oil Chords
Back In Black Live 2 Tabs
Its A Long Way To The Top 2 Tabs
Overdose 3 Tabs
Rock N Roll Aint Noise Pollution 3 Tabs
Rock N Roll Train 1 Tabs
Shot Down In Flames Tabs
Dirty Deeds Done Dirt Cheap Ukulele


Song lyrics



↑ Back to top | Tablatures and chords are parodies/interpretations of the original songs. You may use it for private study, scholarship, research or language learning purposes only
© 2014 AZChords.com Contact us | Privacy policy | DMCA | Add/correct tabs | Request tabs | Top 50 tabs