» » »

Ac Dc, Fling Thing Tabs (ver.3)

Artists:  A B C D E F G H I J K L M N O P Q R S T U V W X Y Z # 

Fling Thing Tabs (ver.3)

Ac Dc Tabs
 Rating:
4/5 (4 votes)
Fling Thing lessons Tabs too difficult? Try these video lessons and learn fast
                

					AC/DC

				    "FLING THING"
RIFF 1
E--------------------------------/
B--------------------------------/
G--6\7--6\7--6\7--6\7--6\7--6\7--/
D--4\5--4\5--4\5--4\5--4\5--4\5--/
A--------------------------------/
E--------------------------------/

RIFF 2
E--------------------------------------------------------/
B--------------------------------------------------------/
G--0-2--0-0-4--0-0-2--0-0-4--0-0-2--0-0-4--0-0-2-0-------/	PLAY THIS 
D---------------------------------------------------0-2--/	2 TIMES.
A--------------------------------------------------------/
E--------------------------------------------------------/

RIFF3
E--------------------------------------------------------/
B--------------------------------------------------------/
G--0-7--0-0-9--0-0-7--0-0-9--0-0-7--0-0-9--0-0-2-0-------/	PLAY THIS
D---------------------------------------------------0-2--/	2 TIMES.
A--------------------------------------------------------/
E--------------------------------------------------------/

RIFF4
E-------------------------/
B-------------------------/
G-------------------------/
D--5-5-7-9-9-7-5-5--------/
A------------------7-5-5--/
E-------------------------/

E-------------------------/
B-------------------------/
G-------------------------/
D----5-5-7-9-9-12-14~-12--/
A--7----------------------/
E-------------------------/

E--------------------------------/
B--------------------------------/
G--------------------------------/
D--12-14-14-9-9-12-10-9-7-5-5----/
A-----------------------------7--/
E--------------------------------/

E------------------------------/
B------------------------------/
G------------------------------/
D--5-5-12-14-14-12-9-7-9-7-5~--/
A------------------------------/
E------------------------------/

REPEAT THE ENTIRE THING

OUTRO
E--------------------------------/
B--------------------------------/
G--6\7--6\7--6\7--6\7--6\7--6\7--/	REPEAT AS MUCH
D--4\5--4\5--4\5--4\5--4\5--4\5--/	AS NESICARY
A--------------------------------/
E--------------------------------/

E-------------------------/
B-------------------------/
G----4---7-6-4---6-4------/
D--6---6-------6-----6-6--/
A-------------------------/
E-------------------------/
            
Submit corrections

comments powered by Disqus
↑ Back to top | Ac Dc Tabs for Fling Thing. Lyrics for acoustic guitar and electric guitar. Tablatures and chords are parodies/interpretations of the original songs. You may use it for private study, scholarship, research or language learning purposes only