» » »

Ac Dc, Evil Walks Tabs (ver.1)

Artists:  A B C D E F G H I J K L M N O P Q R S T U V W X Y Z # 

Evil Walks Tabs (ver.1)

Ac Dc Tabs
 Rating:
4/5 (4 votes)
Evil Walks lessons Tabs too difficult? Try these video lessons and learn fast
                These tabs for Evil Walks are WRONG! This might not be perfect because I'm tabbing from
but is MUCH closer...

INTRO
E-------------------------------|
B-------------------------------|
G-----------------7-(7)-6---4---| x3
D------------2/9-(9)-9--7---5---|
A---2-2-------------------7-----|
E---0-0-------------------------|

E---------------------------------------------------------|
B------------------------------------------------3-3--3-2-|
G-----------------7-(7)--------------------------2-2--2-2-|
D------------2/9-(9)-9---2------------7----------0-0--0-2-|
A---2-2------------------0--5---2-4-5-5-7---2-4--0-0--0-0-|
E---0-0---------------------3---0-2-3---5---0-2-----------|

VERSE after 3x verse starts: "Black shadow hangin' over your shoulder.."
E------------------------------------|
B-----0-0--0--7--7---------7---------|
G---4/6-4--4-/7--7-6--6-6--7--6-6-6--| x6
D---6/7-6--6-/7--7-7--7-7--7--7-7-7--|
A------------------0--0-0-(0)-0-0-0--|
E------------------------------------|

CHORUS "Evil walks, behind you..."
E-------3--3---------------|
B-------3--3-3--2---2-2-2--|
G-------0--0-2--2---2-2-2--| x4
D-------0--0-0--2---2-2-2--|
A---2-4-2--2-0--0---0-0-0--|
E---0-2-3--3---------------|

when it goes into "You just cry wolf..." play INTRO x4

SOLO (not good enough for this yet, just started playing electric a few months ago, been
bass player for 25 years! : )

when it comes out of solo into "EVIL!"
E--------------|
B---------3-2--|
G---------2-2--|
D---------0-2--| x4
A--2-2----0-0--|
E--0-0---------|

then CHORUS part x4

slow part at end after "you're soooooo baaad!"
E--------------------|
B---0-0--0-/7-7-2--2-|
G---6-4--4-/7-7-2--2-|
D---7-6--6-/7-7-2--2-| (I think he ends on the A again once)
A---------------0--0-|
E--------------------|

Well, there it is. I'm pretty sure this will sound much better than the garbage on here
Feedback is appreciated. Like I said, I'm doing this from memory. Just the song in my
When I have more time, I'll break the album out and check it. Also, some chords might be 
and some bar and vice-versa. You AC/DC fans know what I mean ;)Rock on, guys! ANGUS! ANGUS!ANGUS!
            
Submit corrections

comments powered by Disqus
↑ Back to top | Ac Dc Tabs for Evil Walks. Lyrics for acoustic guitar and electric guitar. Tablatures and chords are parodies/interpretations of the original songs. You may use it for private study, scholarship, research or language learning purposes only