» » »

Ac Dc, Crabsody In Blue Tabs (ver.2)

Artists:  A B C D E F G H I J K L M N O P Q R S T U V W X Y Z # 

Crabsody In Blue Tabs (ver.2)

Ac Dc Tabs
 Rating:
4/5 (4 votes)
Crabsody In Blue lessons Tabs too difficult? Try these video lessons and learn fast
                ----------------------------------------------------------------------------
                             SONG NAME - Band Name
----------------------------------------------------------------------------

Tuning:standard

intro/verse riff:
e|-----0--2--4-------0--2--4------------------------------------------------|
B|-------------------0--x---------------------------------------------------|
G|0h1-----------0h1--1--2---------------------------------------------------|
D|-------------------2------------------------------------------------------|
A|--------------------------------------------------------------------------|
E|--------------------------------------------------------------------------|

chorus:
e|--------------------------------------------------------------------------|
B|--------------------------------------------------------------------------|
G|0h1-----------------------------------------------------------------------|
D|----2-2-4-4-2-2-4-4----4--------------------------------------------------|
A|----0-0-0-0-0-0-2-2-5b-2--------------------------------------------------|
E|--------------------------------------------------------------------------|

bridge:
e|--------------------------------------------------------------------------|
B|--------------------------------------------------------------------------|
G|4-4-4-4-4-4-4-4-5-5-5-5-5-5-5-5-2-2-2-2-2-2-2-2-2-2-2-2-2-2-2-2-----------|
D|4-4-4-4-4-4-4-4-5-5-5-5-5-5-5-5-2-2-2-2-2-2-2-2-2-2-2-2-2-2-2-2-----------|
A|2-2-2-2-2-2-2-2-3-3-3-3-3-3-3-3-0-0-0-0-0-0-0-0-0-0-0-0-0-0-0-0-----------|
E|--------------------------------------------------------------------------|

solo:
e|----0-2b-0--------0-----2b-0---------12-15-14-12-14-12----------15-x-14-12|
B|-------------------------------------------------------------12-----------|
G|0h1----------0h1-----1-------\12h13--------------------12h13--------------|
D|--------------------------------------------------------------------------|
A|--------------------------------------------------------------------------|
E|--------------------------------------------------------------------------|

e|----0-----0---------------------------------------------------------------|
B|------2-2--------15-12-14-12--15-14-12-14-12---------12-15b-15b-15b-15b---|
G|0h1-----------12-----------------------------14-12~-----------------------|
D|--------------------------------------------------------------------------|
A|--------------------------------------------------------------------------|
E|--------------------------------------------------------------------------|

e|----------------------------------------12-15-12----------------------------|
B|12-15-12-14-12-14b-14b-14b-14b-12-14-15----------15-12-----------------12-15|
G|------------------------------------------------------14-12-----12-14-------|
D|-----------------------------------------------------------12-14------------|
A|----------------------------------------------------------------------------|
E|----------------------------------------------------------------------------|

e|---------------------------------------------------------------------------|
B|---------------------------------------------------------------------------|
G|---------------------------------------------------------------------------|
D|---------------------------------------------------------------------------|
A|---------------------------------------------------------------------------|
E|---------------------------------------------------------------------------|


e|12-15b-15b-15b-15b/\17b-17b-17b-17b|
B|-----------------------------------|
G|-----------------------------------|
D|-----------------------------------|
A|-----------------------------------|
E|-----------------------------------|

e|19b---19-17-15-14-14b-14b-14b\-----------------------------------------------|
B|-----------------------------------------------------------------------------|
G|-----------------------------------------------------------------------------|
D|-----------------------------------------------------------------------------|
A|-----------------------------------------------------------------------------|
E|-----------------------------------------------------------------------------|

outro:
e|-----0--4-3-2-0~----------------------------------------------------------|
B|--------------------------------------------------------------------------|
G|0h1-----------------------------------------------------------------------|
D|--------------------------------------------------------------------------|
A|--------------------------------------------------------------------------|
E|--------------------------------------------------------------------------|


| /  slide up
| \  slide down
| h  hammer-on
| p  pull-off
| ~  vibrato
| +  harmonic
| x  Mute note
==============================================================================
            
Submit corrections

comments powered by Disqus
↑ Back to top | Ac Dc Tabs for Crabsody In Blue. Lyrics for acoustic guitar and electric guitar. Tablatures and chords are parodies/interpretations of the original songs. You may use it for private study, scholarship, research or language learning purposes only